Never Cry bout a woman

Chords

01234567891011121314151617181920212223
E
B
G
D
A
E
B
0 1 2 3 4 5 6 7 8 9 10 11 12 13 14 15 16 17 18 19 20 21 22 23
(/) Slide Up  (\) Slide Down  (h) Hammer On  (p) Pull Off  (b) Bend (r) Release (v) Vibrato

Stave 1:

E|---------------------------------------------------------------
B|------------------------------------------------15-------------
G|---------12--14b16r12\14v--v---------12--14b16------14b16r12v--
D|--12h14-----------------------12h14----------------------------
A|---------------------------------------------------------------
E|---------------------------------------------------------------

Stave 2:

E|---------------------------------------------------
B|-------------15b16---------------------------------
G|--12--14\16---------16--14v--16--14----------------
D|-------------------------------------16--14/12\14--
A|---------------------------------------------------
E|---------------------------------------------------

Stave 3:

E|--------------------------10b12--10b12--10----------------------
B|--------3h5b7r5--3--3\5v--------------------10--10v-------------
G|-----4-----------------------------------------------7b9r5------
D|--5---------------------------------------------------------7v--
A|----------------------------------------------------------------
E|----------------------------------------------------------------

							http://www.guitartabcreator.com
genre
Instruments
{"strings":[[[".",".",".",".",".",".",".",".",".",".",".",".",".",".",".",".",".",".",".",".",".",".",".",".",".",".","."],[".",".",".",".",".",".",".",".",".",".",".",".",".",".",".",".",".",".",".",".",15,".",".",".",".",".","."],[".",".",".",12,14,"b",16,"r",12,"\\",14,"v","v",".",".",".",12,14,"b",16,".",14,"b",16,"r",12,"v"],[12,"h",14,".",".",".",".",".",".",".",".",".",".",12,"h",14,".",".",".",".",".",".",".",".",".",".","."],[".",".",".",".",".",".",".",".",".",".",".",".",".",".",".",".",".",".",".",".",".",".",".",".",".",".","."],[".",".",".",".",".",".",".",".",".",".",".",".",".",".",".",".",".",".",".",".",".",".",".",".",".",".","."]],[[".",".",".",".",".",".",".",".",".",".",".",".",".",".",".",".",".","."],[".",".",".",".",15,"b",16,".",".",".",".",".",".",".",".",".",".","."],[12,14,"\\",16,".",".",".",16,14,"v",16,14,".",".",".",".",".","."],[".",".",".",".",".",".",".",".",".",".",".",".",16,14,"/",12,"\\",14],[".",".",".",".",".",".",".",".",".",".",".",".",".",".",".",".",".","."],[".",".",".",".",".",".",".",".",".",".",".",".",".",".",".",".",".","."]],[[".",".",".",".",".",".",".",".",".",".",".",".",".",".",10,"b",12,10,"b",12,10,".",".",".",".",".",".",".",".",".","."],[".",".",3,"h",5,"b",7,"r",5,3,3,"\\",5,"v",".",".",".",".",".",".",".",10,10,"v",".",".",".",".",".",".","."],[".",4,".",".",".",".",".",".",".",".",".",".",".",".",".",".",".",".",".",".",".",".",".",".",7,"b",9,"r",5,".","."],[5,".",".",".",".",".",".",".",".",".",".",".",".",".",".",".",".",".",".",".",".",".",".",".",".",".",".",".",".",7,"v"],[".",".",".",".",".",".",".",".",".",".",".",".",".",".",".",".",".",".",".",".",".",".",".",".",".",".",".",".",".",".","."],[".",".",".",".",".",".",".",".",".",".",".",".",".",".",".",".",".",".",".",".",".",".",".",".",".",".",".",".",".",".","."]]],"numberofstrings":6,"notes":["E","B","G","D","A","E"],"capo":0,"stringnotes":["E3","B2","G2","D2","A1","E1"],"comments":["Stave 1:","Stave 2:","Stave 3:"],"timing":[["W",null,"W","W","W",null,"W",null,"W",null,"W",null,null,"W",null,"W","W","W",null,"W","W","W",null,"W",null,"W"],["W","W",null,"W","W",null,"W","W","W",null,"W","W","W","W",null,"W",null,"W"],["W","W","W",null,"W",null,"W",null,"W","W","W",null,"W",null,"W",null,"W","W",null,"W","W","W","W",null,"W",null,"W",null,"W","W"]],"timingvisible":false,"tabcounter":31,"stave":2,"totalstaves":3,"instrument":"6guitar","selectedtuning":"6guitar","version":"13"}

Member for

2 months 1 week
Submitted by Virgin Barb on Thu, 2020-07-30 07:14