Królowa ANALizy Solo tab

Chords

01234567891011121314151617181920212223
E
B
G
D
A
E
B
0 1 2 3 4 5 6 7 8 9 10 11 12 13 14 15 16 17 18 19 20 21 22 23
(/) Slide Up  (\) Slide Down  (h) Hammer On  (p) Pull Off  (b) Bend (r) Release (v) Vibrato

Stave 1:

E|-------------------------------------------------------------------------------
B|-------------------------------------------------------------------------------
G|--12b14--12b14--12--10---------------------------------------------------------
D|------------------------12--10--10--12--10-------------------------------------
A|--------------------------------------------12--10-----------------------------
E|----------------------------------------------------12--11--10--10--10\12v--v--

Stave 2:

E|--------------------------------------
B|--------------------------------------
G|--------------------------------------
D|----------10--12--12b14--12--10/5\7v--
A|--10--12------------------------------
E|--------------------------------------

Stave 3:

E|--------------------------------------
B|--------------------------------------
G|--12b14--12b14--12b14--12b14--10\12v--
D|--------------------------------------
A|--------------------------------------
E|--------------------------------------

							http://www.guitartabcreator.com
Instruments
{"strings":[[[".",".",".",".",".",".",".",".",".",".",".",".",".",".",".",".",".",".",".",".",".",".",".","."],[".",".",".",".",".",".",".",".",".",".",".",".",".",".",".",".",".",".",".",".",".",".",".","."],[12,"b",14,12,"b",14,12,10,".",".",".",".",".",".",".",".",".",".",".",".",".",".",".","."],[".",".",".",".",".",".",".",".",12,10,10,12,10,".",".",".",".",".",".",".",".",".",".","."],[".",".",".",".",".",".",".",".",".",".",".",".",".",12,10,".",".",".",".",".",".",".",".","."],[".",".",".",".",".",".",".",".",".",".",".",".",".",".",".",12,11,10,10,10,"\\",12,"v","v"]],[[".",".",".",".",".",".",".",".",".",".",".",".",".","."],[".",".",".",".",".",".",".",".",".",".",".",".",".","."],[".",".",".",".",".",".",".",".",".",".",".",".",".","."],[".",".",10,12,12,"b",14,12,10,"/",5,"\\",7,"v"],[10,12,".",".",".",".",".",".",".",".",".",".",".","."],[".",".",".",".",".",".",".",".",".",".",".",".",".","."]],[[".",".",".",".",".",".",".",".",".",".",".",".",".",".",".","."],[".",".",".",".",".",".",".",".",".",".",".",".",".",".",".","."],[12,"b",14,12,"b",14,12,"b",14,12,"b",14,10,"\\",12,"v"],[".",".",".",".",".",".",".",".",".",".",".",".",".",".",".","."],[".",".",".",".",".",".",".",".",".",".",".",".",".",".",".","."],[".",".",".",".",".",".",".",".",".",".",".",".",".",".",".","."]]],"numberofstrings":6,"notes":["E","B","G","D","A","E","B"],"capo":0,"stringnotes":["E4","B3","G3","D3","A2","E2"],"comments":["Stave 1:","Stave 2:","Stave 3:"],"timing":[["W",null,"W","W",null,"W","W","W","W","W","W","W","W","W","W","W","W","W","W",null,"W",null,"W","W"],["W","W","W","W","W",null,"W","W","W",null,"W",null,"W"],["W",null,"W","W","W","W","W",null,"W","W",null,"W","W",null,"W"]],"timingvisible":false,"tabcounter":16,"stave":2,"totalstaves":3,"instrument":"6guitar","selectedtuning":"6_standard","version":"13"}

Member for

3 months 3 weeks
Submitted by Virgin Barb on Thu, 2020-06-04 04:45