Sound will begin in 5 seconds

Denial Pt#1

Chords
01234567891011121314151617181920212223
E
B
G
D
A
E
B
0 1 2 3 4 5 6 7 8 9 10 11 12 13 14 15 16 17 18 19 20 21 22 23
Song Science #1: How Pros Use 6 Chords to Write Hit Songs
(/) Slide Up  (\) Slide Down  (h) Hammer On  (p) Pull Off  (b) Bend (r) Release (v) Vibrato

Stave 1:

D|-----------------------------------------------------------
A|-----------------------------------------------------------
F|------8-7-------3-------8-7----------------8-7-------------
C|-----------------------------------------------------------
G|-5-0-5-6-5-5-0-5-1-5-0-5-6-5-5-0-5-13-5-0-5-6-5-5-0-5-------
C|-5-0-5-----5-0-5---5-0-5-----5-0-5-13-5-0-5-----5-0-5-8-8-8-

Stave 2:

D|-----------
A|-----------
F|-----------
C|-7----------
G|-5-6-8h10-1-
C|-5-8-8----1-

Stave 3:

D|-----------------------------------------------------------------------------------------
A|-----------------------------------------------------------------------------------------
F|-----------------------------------------------------------------------------------------
C|-----------------------------------------------------------------------------------------
G|-6p5---6p5-------------6p5-------------6p5---6p5---6p5-------------6p5-------------1-3---
C|-----0-----0-0-0-0-0-0-----0-0-0-0-0-0-----0-----0-----0-0-0-0-0-0-----0-0-0-0-0-0-----0-

Stave 4:

D|--
A|--
F|--
C|--
G|-0-
C|-1-

Stave 5:

D|-----------------------------------------------------------------------------------
A|-----------------------------------------------------------------------------------
F|-----------------------------------------------------------------------------------
C|-----------------------------------------------------------------------------------
G|-----------------------------------------------------------------------------------
C|-1p0-0-1p0-0-0-0-0-0-0-1p0-0-0-0-0-0-0-1p0-0-1p0-0-1p0-0-0-0-0-0-0-1p0-0-0-0-0-0-0-

Stave 6:

D|--------
A|------5-
F|------8-
C|-6-6-6---
G|-5-5-5---
C|--------

Stave 7:

D|----------------------------------------------------
A|------5-------------5-------------5-----------------
F|-2-----8-------2-----8-------2-----8-----------------
C|-2-------------2-------------2---------------------0-
G|--0-0---0-1-0---0-0---0-1-0---0-0---0-1-0---------6-
C|--1-0---0-1-0---1-0---0-1-0---1-0---0-1-0-0-3-6-0---

Stave 8:

D|------------------------------------------------
A|------5-------------5---------------------------
F|-2-----8-------2-----8---------------------------
C|-2-------------2---------------------------------
G|--0-0---0-1-0---0-0---0-1-0-6-1-5-1-0-6-1-5-1-0-
C|--1-0---0-1-0---1-0---0-1-0-6-1-5-1-0-6-1-5-1-0-

Stave 9:

D|--------
A|--------
F|--------
C|--------
G|-6-1-5-0-
C|-6-1-5-1-

Stave 10:

D|---------------------------------------------------
A|---------------------------------------------------
F|---------------------------------------------------
C|---------0---------0-0-----------------------------
G|---------6---------6-6---------3h5-----1h3---------
C|-0-3-6-0---0-3-6-0-----0-3-5-0-----0-0-----1-1-1-1-

Stave 11:

D|-------------------------------------------------------
A|-------------------------------------------------------
F|-------------------------------------------------------
C|-------------------------------------------------------
G|-------------0-1-------------------1h3---------3h5-5h6-
C|-0-0-0-0-1-3-----0-0-0-0-0-0-0-1-3-----0-3-5-0---------

Stave 12:

D|-----------------------------------------------
A|-----------------------------------------------
F|-----------------------------------------------
C|-----------------------------------------------
G|---------1h3-0-------------1h3---------3h5-5h6-
C|-1-1-1-1-----1-1-1-1-1-1-3-----0-3-5-0---------

Stave 13:

D|---------------------------------------------------------------------------
A|-------------------5--------------------5-5--------------------5-5-----5---
F|---------------7---8----------------7---8-8----------------7---8-8-----8---
C|---------------6--------------------6----------------------6---------------
G|-0-0-0------0-0-5-0---0-0-0------0-0-5-0-----0-0-0------0-0-5-0-----------0-
C|-1-1-1-13\1-1-0---1---1-1-1-13\1-1-0---1-----1-1-1-13\1-1-0---1-----0-0---0-

Stave 14:

D|-----------------------------------
A|-------------------------8-8-------
F|---------------7-------7-----7-----
C|---------------6-----6---------6---
G|-0-0-0------0-0-5-0-5-------------5-
C|-1-1-1-13\1-1-0---1-----------------

http://www.guitartabcreator.com
Guitar Tab Creator is intended to store guitar tab created through the tool. It currently does not support in-line text editing. Any text you place in here will be lost. If you need to comment on your tab, please use the "Tab Notes" section located below.