Sound will begin in 5 seconds

pantatonic E scale in patterns

Chords
01234567891011121314151617181920212223
E
B
G
D
A
E
B
0 1 2 3 4 5 6 7 8 9 10 11 12 13 14 15 16 17 18 19 20 21 22 23
Song Science #1: How Pros Use 6 Chords to Write Hit Songs
(/) Slide Up  (\) Slide Down  (h) Hammer On  (p) Pull Off  (b) Bend (r) Release (v) Vibrato

Stave 1:

E|-----------------------------------------------2--4--5--
B|--------------------------------------2--4--5-----------
G|-----------------------------1--2--4--------------------
D|--------------------1--2--4-----------------------------
A|-----------0--2--4--------------------------------------
E|--0--2--4-----------------------------------------------

Stave 2:

E|-----------------------------------------------4--5--7--|---------------------------------------------7--
B|--------------------------------------4--5--7-----------|-----------------------------------7--9--10-----
G|-----------------------------4--6--8--------------------|--------------------------6--8--9---------------
D|--------------------4--6--7-----------------------------|-----------------6--7--9------------------------
A|-----------4--6--7--------------------------------------|--------6--7--9---------------------------------
E|--4--5--7-----------------------------------------------|--7--9------------------------------------------

Stave 3:

E|----------------------------------------------------9--11--12--|--
B|-----------------------------------------9--10--12-------------|--
G|-------------------------------8--9--11------------------------|--
D|------------------------9--11----------------------------------|--
A|-------------9--11--12-----------------------------------------|--
E|--9--11--12----------------------------------------------------|--

Stave 4:

E|------------------------------------------------------11--12--14--|--|--
B|----------------------------------------------12--14--------------|--|--
G|----------------------------------11--13--14----------------------|--|--
D|----------------------11--13--14----------------------------------|--|--
A|----------11--12--14----------------------------------------------|--|--
E|--12--14----------------------------------------------------------|--|--

Stave 5:

E|--------------------------------------------------------------14--16--17--|--
B|--------------------------------------------------14--16--17--------------|--
G|--------------------------------------14--16--18--------------------------|--
D|--------------------------14--16--18--------------------------------------|--
A|--------------14--16--18--------------------------------------------------|--
E|--14--16--17--------------------------------------------------------------|--

Stave 6:

E|----------------------------------------------------------------------|--
B|----------------------------------------------------------17--19--21--|--
G|----------------------------------------------18--20--21--------------|--
D|----------------------------------18--19--21--------------------------|--
A|------------------18--18--19--21--------------------------------------|--
E|--17--19--21--21------------------------------------------------------|--

Stave 7:

E|--0--4--7--|--2--
B|--0--5--9--|--2--
G|--1--4--9--|--2--
D|--2--6--9--|--4--
A|--2--7--7--|--4--
E|--0--------|--2--

http://www.guitartabcreator.com
Guitar Tab Creator is intended to store guitar tab created through the tool. It currently does not support in-line text editing. Any text you place in here will be lost. If you need to comment on your tab, please use the "Tab Notes" section located below.