Em

Chords

01234567891011121314151617181920212223
E
B
G
D
A
E
B
0 1 2 3 4 5 6 7 8 9 10 11 12 13 14 15 16 17 18 19 20 21 22 23
(/) Slide Up  (\) Slide Down  (h) Hammer On  (p) Pull Off  (b) Bend (r) Release (v) Vibrato

Stave 1:

E|--------------------------------------------------------------------------------------------15p12---------15p12--15p12---------
B|--15-------------------15--17--15------15----------------------------12h14p12h17p12v---------------14p12----------------14p12--
G|--15b17-----12v--------------------16------16--14--16v-----12h14h15------------------------------------------------------------
D|-------------------------------------------------------------------------------------------------------------------------------
A|-------------------------------------------------------------------------------------------------------------------------------
E|-------------------------------------------------------------------------------------------------------------------------------

Stave 2:

E|------------------------------------------------------------------------------------------------------------------------------------------------
B|--15--15--15--15--15--15--14--14--14--14--12--12--12--12--12--10--10--10--10--10--10--12--12--12--12--12--14--14--15--15-----12h15p12h15h17-----
G|------------------------------------------------------------------------------------------------------------------------------------------------
D|------------------------------------------------------------------------------------------------------------------------------------------------
A|------------------------------------------------------------------------------------------------------------------------------------------------
E|------------------------------------------------------------------------------------------------------------------------------------------------

Stave 3:

E|-----------------------------------------------------------------------------------------
B|--12h15p12h15h19-----12h15p12h15h20-----12h15p12h15h22p12h15h20p12h15h19p12h17p12h15p12--
G|-----------------------------------------------------------------------------------------
D|-----------------------------------------------------------------------------------------
A|-----------------------------------------------------------------------------------------
E|-----------------------------------------------------------------------------------------

Stave 4:

E|-------------------------------------21--19--17--19--17------17-----------------------------------------------------------
B|--15p12h19r12h15p12h17p12v-------------------------------19------19--17--19--17------17-----------------------------------
G|---------------------------------------------------------------------------------19------19--17--19--17------17-----------
D|---------------------------------------------------------------------------------------------------------19------19--19v--
A|--------------------------------------------------------------------------------------------------------------------------
E|--------------------------------------------------------------------------------------------------------------------------

							http://www.guitartabcreator.com
Instruments
{"strings":[[[".",".",".","_",".",".","_","_",".",".",".",".",".",".",".",".",".","_",".",".",".",".",".",".",".",".",".",".",".",".",".",".",".","_","_",15,"p",12,".",".",".",15,"p",12,15,"p",12,".",".","."],[15,".",".","_",".",".","_","_",15,17,15,".",15,".",".",".",".","_",".",".",".",".",".",12,"h",14,"p",12,"h",17,"p",12,"v","_","_",".",".",".",14,"p",12,".",".",".",".",".",".",14,"p",12],[15,"b",17,"_",12,"v","_","_",".",".",".",16,".",16,14,16,"v","_",12,"h",14,"h",15,".",".",".",".",".",".",".",".",".",".","_","_",".",".",".",".",".",".",".",".",".",".",".",".",".",".","."],[".",".",".","_",".",".","_","_",".",".",".",".",".",".",".",".",".","_",".",".",".",".",".",".",".",".",".",".",".",".",".",".",".","_","_",".",".",".",".",".",".",".",".",".",".",".",".",".",".","."],[".",".",".","_",".",".","_","_",".",".",".",".",".",".",".",".",".","_",".",".",".",".",".",".",".",".",".",".",".",".",".",".",".","_","_",".",".",".",".",".",".",".",".",".",".",".",".",".",".","."],[".",".",".","_",".",".","_","_",".",".",".",".",".",".",".",".",".","_",".",".",".",".",".",".",".",".",".",".",".",".",".",".",".","_","_",".",".",".",".",".",".",".",".",".",".",".",".",".",".","."]],[[".",".",".",".",".",".",".",".",".",".",".",".",".",".",".",".",".",".",".",".",".",".",".",".",".",".",".",".",".",".","_",".",".",".",".",".",".",".",".",".","_"],[15,15,15,15,15,15,14,14,14,14,12,12,12,12,12,10,10,10,10,10,10,12,12,12,12,12,14,14,15,15,"_",12,"h",15,"p",12,"h",15,"h",17,"_"],[".",".",".",".",".",".",".",".",".",".",".",".",".",".",".",".",".",".",".",".",".",".",".",".",".",".",".",".",".",".","_",".",".",".",".",".",".",".",".",".","_"],[".",".",".",".",".",".",".",".",".",".",".",".",".",".",".",".",".",".",".",".",".",".",".",".",".",".",".",".",".",".","_",".",".",".",".",".",".",".",".",".","_"],[".",".",".",".",".",".",".",".",".",".",".",".",".",".",".",".",".",".",".",".",".",".",".",".",".",".",".",".",".",".","_",".",".",".",".",".",".",".",".",".","_"],[".",".",".",".",".",".",".",".",".",".",".",".",".",".",".",".",".",".",".",".",".",".",".",".",".",".",".",".",".",".","_",".",".",".",".",".",".",".",".",".","_"]],[[".",".",".",".",".",".",".",".",".","_",".",".",".",".",".",".",".",".",".","_",".",".",".",".",".",".",".",".",".",".",".",".",".",".",".",".",".",".",".",".",".",".",".",".",".",".",".",".",".",".","."],[12,"h",15,"p",12,"h",15,"h",19,"_",12,"h",15,"p",12,"h",15,"h",20,"_",12,"h",15,"p",12,"h",15,"h",22,"p",12,"h",15,"h",20,"p",12,"h",15,"h",19,"p",12,"h",17,"p",12,"h",15,"p",12],[".",".",".",".",".",".",".",".",".","_",".",".",".",".",".",".",".",".",".","_",".",".",".",".",".",".",".",".",".",".",".",".",".",".",".",".",".",".",".",".",".",".",".",".",".",".",".",".",".",".","."],[".",".",".",".",".",".",".",".",".","_",".",".",".",".",".",".",".",".",".","_",".",".",".",".",".",".",".",".",".",".",".",".",".",".",".",".",".",".",".",".",".",".",".",".",".",".",".",".",".",".","."],[".",".",".",".",".",".",".",".",".","_",".",".",".",".",".",".",".",".",".","_",".",".",".",".",".",".",".",".",".",".",".",".",".",".",".",".",".",".",".",".",".",".",".",".",".",".",".",".",".",".","."],[".",".",".",".",".",".",".",".",".","_",".",".",".",".",".",".",".",".",".","_",".",".",".",".",".",".",".",".",".",".",".",".",".",".",".",".",".",".",".",".",".",".",".",".",".",".",".",".",".",".","."]],[[".",".",".",".",".",".",".",".",".",".",".",".",".",".",".",".","_","_","_",21,19,17,19,17,".",17,".",".",".",".",".",".",".",".",".",".",".",".",".",".","."],[15,"p",12,"h",19,"r",12,"h",15,"p",12,"h",17,"p",12,"v","_","_","_",".",".",".",".",".",19,".",19,17,19,17,".",17,".",".",".",".",".",".",".",".","."],[".",".",".",".",".",".",".",".",".",".",".",".",".",".",".",".","_","_","_",".",".",".",".",".",".",".",".",".",".",".",19,".",19,17,19,17,".",17,".",".","."],[".",".",".",".",".",".",".",".",".",".",".",".",".",".",".",".","_","_","_",".",".",".",".",".",".",".",".",".",".",".",".",".",".",".",".",".",19,".",19,19,"v"],[".",".",".",".",".",".",".",".",".",".",".",".",".",".",".",".","_","_","_",".",".",".",".",".",".",".",".",".",".",".",".",".",".",".",".",".",".",".",".",".","."],[".",".",".",".",".",".",".",".",".",".",".",".",".",".",".",".","_","_","_",".",".",".",".",".",".",".",".",".",".",".",".",".",".",".",".",".",".",".",".",".","."]]],"numberofstrings":6,"notes":["E","B","G","D","A","E","B"],"capo":0,"stringnotes":["E4","B3","G3","D3","A2","E2"],"comments":["Stave 1:","Stave 2:","Stave 3:","Stave 4:"],"timing":[[null,null,null,null,null,null,null,null,null,null,null,null,null,null,null,null,null,null,"W",null,"W",null,"W","W",null,"W",null,"W",null,"W",null,"W",null,null,null,"W",null,"W","W",null,"W","W",null,"W","W",null,"W","W",null,"W",null],["W","W","W","W","W","W","W","W","W","W","W","W","W","W","W","W","W","W","W","W","W","W","W","W","W","W","W","W","W","W","W","W","W","W","W","W","W","W","W","W",null,"W"],["W",null,"W",null,"W",null,"W",null,"W",null,"W",null,"W",null,"W",null,"W","W","W",null,"W",null,"W",null,"W",null,"W",null,"W",null,"W",null,"W",null,"W",null,"W",null,"W",null,"W",null,"W",null,"W","W","W",null,"W",null,"W"],["W",null,"W",null,"W",null,"W",null,"W",null,"W",null,"W",null,"W",null,null,null,null,"W","W","W","W","W","W","W","W","W","W","W","W","W","W","W","W","W","W","W","W","W"]],"timingvisible":false,"tabcounter":41,"stave":3,"totalstaves":4,"instrument":"6guitar","selectedtuning":"6_standard","version":"13"}

Member for

1 month 2 weeks
Submitted by vinicius on Wed, 2020-12-02 17:28