Sound will begin in 5 seconds

Euphoric Visions

Chords
01234567891011121314151617181920212223
E
B
G
D
A
E
B
0 1 2 3 4 5 6 7 8 9 10 11 12 13 14 15 16 17 18 19 20 21 22 23
Song Science #1: How Pros Use 6 Chords to Write Hit Songs
(/) Slide Up  (\) Slide Down  (h) Hammer On  (p) Pull Off  (b) Bend (r) Release (v) Vibrato

Stave 1:

E|-----------------------------------
B|-----------------------------------
G|-----------------------------------
D|--------9--------5--------3--4--3--
A|--------7--------3--------1--2--1--
E|--0--0-----0--0-----0--0-----------

Stave 2:

E|-----------------------------------
B|-----------------------------------
G|-----------------------------------
D|--------9--------5--------3--4-----
A|--------7--------3--------1--2--2--
E|--0--0-----0--0-----0--0--------0--

Stave 3:

E|--------------------------------
B|--------------------------------
G|--------------------------------
D|--------7--------7--------------
A|--------5--------5--------5--7--
E|--0--0-----0--0-----0--0--------

Stave 4:

E|--------------------------------
B|--------------------------------
G|--------------------------------
D|--------7--------8--------8--9--
A|--------5--------6--------6--7--
E|--0--0-----0--0-----0--0--------

Stave 5:

E|-----------------
B|-----------------
G|-----------------
D|--------------3--
A|--2-----------1--
E|--0--0--0--0-----

Stave 6:

E|-----------
B|-----------
G|-----------
D|-----------
A|-----5--4--
E|--0--3--2--

Stave 7:

E|-----------------
B|-----------------
G|-----------------
D|--------------3--
A|--2-----------1--
E|--0--0--0--0-----

Stave 8:

E|--------------------------
B|--------------------------
G|--------------------------
D|--------------3-----------
A|--2-----------1-----5--4--
E|--0--0--0--0-----0--3--2--

http://www.guitartabcreator.com
Guitar Tab Creator is intended to store guitar tab created through the tool. It currently does not support in-line text editing. Any text you place in here will be lost. If you need to comment on your tab, please use the "Tab Notes" section located below.