Sound will begin in 5 seconds

Solo - Mood 2

01234567891011121314151617181920212223
E
B
G
D
A
E
B
0 1 2 3 4 5 6 7 8 9 10 11 12 13 14 15 16 17 18 19 20 21 22 23
Song Science #1: How Pros Use 6 Chords to Write Hit Songs
(/) Slide Up  (\) Slide Down  (h) Hammer On  (p) Pull Off  (b) Bend (r) Release (v) Vibrato

Stave 1:

E|------------------------------------------------------------------
B|---------------------------------------7--8--7h8p7-----7--8-------
G|-----7--9v-----7--9b11-----7--9v--------------------9--------7/9--
D|--9---------9-----------9---------7/9-----------------------------
A|------------------------------------------------------------------
E|------------------------------------------------------------------

Stave 2:

E|--------------------------------------------0/3--0h3p0--0--
B|---------------------------------------0/3-----------------
G|----------------------------------0/2----------------------
D|--7--9--5--7--4--5--4--0--2--0/2---------------------------
A|-----------------------------------------------------------
E|-----------------------------------------------------------

Stave 3:

E|--0--2--3--2--3--5--3--5--7--5--7--8--7--8--10--8--10--12--10--12--14--12--15--12--14--12--
B|-------------------------------------------------------------------------------------------
G|-------------------------------------------------------------------------------------------
D|-------------------------------------------------------------------------------------------
A|-------------------------------------------------------------------------------------------
E|-------------------------------------------------------------------------------------------

Stave 4:

E|--12--11--12--------------------------15--14--15--
B|--------------13--12--13--------------------------
G|--------------------------12--11--12--------------
D|--------------------------------------------------
A|--------------------------------------------------
E|--------------------------------------------------

http://www.guitartabcreator.com
Guitar Tab Creator is intended to store guitar tab created through the tool. It currently does not support in-line text editing. Any text you place in here will be lost. If you need to comment on your tab, please use the "Tab Notes" section located below.