Sound will begin in 5 seconds

Solo - mood

01234567891011121314151617181920212223
E
B
G
D
A
E
B
0 1 2 3 4 5 6 7 8 9 10 11 12 13 14 15 16 17 18 19 20 21 22 23
Song Science #1: How Pros Use 6 Chords to Write Hit Songs
(/) Slide Up  (\) Slide Down  (h) Hammer On  (p) Pull Off  (b) Bend (r) Release (v) Vibrato

Stave 1:

E|----------------------------------------------------------------------
B|----------------------------------------------------------------------
G|--17--16--14--16--14--12--14--12------------------11--12--11----------
D|----------------------------------12--14--12--14--------------12--14--
A|----------------------------------------------------------------------
E|----------------------------------------------------------------------

Stave 2:

E|---------------------------------------------------------------
B|---------------------------------------------------------------
G|---------------------------------------------------------------
D|--14--12--10--12--10--9--10--9--7--9--7--5--7--5--4--5--2--14--
A|---------------------------------------------------------------
E|---------------------------------------------------------------

Stave 3:

E|------------------------------------------------------
B|------------------------------------------------------
G|----------------------------------16--14--12----------
D|--------------------------12--14--------------13--14--
A|--------------12--14--15------------------------------
E|--12--14--15------------------------------------------

Stave 4:

E|------------------------------15--14--12--14--12--------------------------------------------------
B|--------------12----------------------------------15--13--12--13--12------------------------------
G|------11--12------14--12--14------------------------------------------14--12--11--12--11----------
D|--14--------------------------------------------------------------------------------------12--14--
A|--------------------------------------------------------------------------------------------------
E|--------------------------------------------------------------------------------------------------

Stave 5:

E|--15p14p12--15p14p12--15p14p12--15p14p12--15p14p12--15p14p12--15p14p12--15p14p12--
B|----------------------------------------------------------------------------------
G|----------------------------------------------------------------------------------
D|----------------------------------------------------------------------------------
A|----------------------------------------------------------------------------------
E|----------------------------------------------------------------------------------

Stave 6:

E|----------------------------------------------------------------------------------
B|--15p13p12--15p13p12--15p13p12--15p13p12--15p13p12--15p13p12--15p13p12--15p13p12--
G|----------------------------------------------------------------------------------
D|----------------------------------------------------------------------------------
A|----------------------------------------------------------------------------------
E|----------------------------------------------------------------------------------

Stave 7:

E|--19p17p15--19p17p15--19p17p15--19p17p15--19p17p15--19p17p15--19p17p15--11--12--
B|--------------------------------------------------------------------------------
G|--------------------------------------------------------------------------------
D|--------------------------------------------------------------------------------
A|--------------------------------------------------------------------------------
E|--------------------------------------------------------------------------------

http://www.guitartabcreator.com
Guitar Tab Creator is intended to store guitar tab created through the tool. It currently does not support in-line text editing. Any text you place in here will be lost. If you need to comment on your tab, please use the "Tab Notes" section located below.