Sound will begin in 5 seconds

Take your mama solo

01234567891011121314151617181920212223
E
B
G
D
A
E
B
0 1 2 3 4 5 6 7 8 9 10 11 12 13 14 15 16 17 18 19 20 21 22 23
(/) Slide Up  (\) Slide Down  (h) Hammer On  (p) Pull Off  (b) Bend (r) Release (v) Vibrato

Stave 1:

E|----------------------------------------------------------11------------------------------------------
B|--14--14--11------11--14--11----------------------11--14------11------11------------------------------
G|--------------13--------------13--13--10--12--13------------------13------13--12--10--12--10----------
D|----------------------------------------------------------------------------------------------11------
A|--------------------------------------------------------------------------------------------------13--
E|------------------------------------------------------------------------------------------------------

Stave 2:

E|------------------------------------------------------------------------------------
B|--------------------------11------11--11--15----------------------------------------
G|------------------10--12------12--------------10--12--13--12--10--------------------
D|------10--11--12--------------------------------------------------10--11--10--8--8--
A|--10--------------------------------------------------------------------------------
E|------------------------------------------------------------------------------------

Stave 3:

E|----------------------------------------------12-----------------------------------------11------------
B|--------------11--13--13b15--15r13p11--15b17------14b15r14--13b14r13--13p11--14--13--11------14p13p11--
G|--10--12--13-------------------------------------------------------------------------------------------
D|-------------------------------------------------------------------------------------------------------
A|-------------------------------------------------------------------------------------------------------
E|-------------------------------------------------------------------------------------------------------

Stave 4:

E|--------------------
B|---------11---------
G|--13b14------13/15--
D|--------------------
A|--------------------
E|--------------------

http://www.guitartabcreator.com
Guitar Tab Creator is intended to store guitar tab created through the tool. It currently does not support in-line text editing. Any text you place in here will be lost. If you need to comment on your tab, please use the "Tab Notes" section located below.