Sound will begin in 5 seconds

The Gate Guitar 1

Chords
01234567891011121314151617181920212223
E
B
G
D
A
E
B
0 1 2 3 4 5 6 7 8 9 10 11 12 13 14 15 16 17 18 19 20 21 22 23
Song Science #1: How Pros Use 6 Chords to Write Hit Songs
(/) Slide Up  (\) Slide Down  (h) Hammer On  (p) Pull Off  (b) Bend (r) Release (v) Vibrato

Stave 1:

E|--------------------------------------------------|--------------------------------------------------
B|--------------------------------------------------|--------------------------------------------------
G|--------------------------------------------------|--------------------------------------------------
D|--------------------------------------------------|--3-----3-----3-----3--3-----3-----3--3-----3-----
A|--1-----1-----1-----1--1-----1-----1--1-----1-----|--0-----0-----0-----0--0-----0-----0--0-----0-----
E|--1-----1-----1-----1--1-----1-----1--1-----1-----|--1-----1-----1-----1--1-----1-----1--1-----1-----
A|--1--1--1--1--1--1--1--1--1--1--1--1--1--1--1--1--|--0--0--0--0--0--0--0--0--0--0--0--0--0--0--0--0--

Stave 2:

E|--------------------------------------------------|--------------------------------------------------
B|--------------------------------------------------|--------------------------------------------------
G|--------------------------------------------------|--------------------------------------------------
D|--------------------------------------------------|--3-----3-----3-----3--3-----5-----5--5-----5-----
A|--1-----1-----1-----1--1-----1-----1--1-----1-----|--0-----0-----0-----0--0-----3-----3--3-----3-----
E|--1-----1-----1-----1--1-----1-----1--1-----1-----|--1-----1-----1-----1--1-----3-----3--3-----3-----
A|--1--1--1--1--1--1--1--1--1--1--1--1--1--1--1--1--|--0--0--0--0--0--0--0--0--3--3--3--3--3--3--3--3--

Stave 3:

E|--------------------------------------8-------------------------------|--
B|--------------------------------5--6-----6----------------------------|--
G|--------------------------5--7----------------------------------------|--
D|--------------7-----5--7----------------------------------------------|--
A|-----------------8------------------------------------------h8h8h8h8--|--
E|----------------------------------------------------------------------|--
A|--5--5--5--5--------------------------------8--8--8--8--7--7----------|--

Stave 4:

E|--------------------------------------------------------------------------------------|--
B|--------------------------------------------------------------------------------------|--
G|--------------------------------------------------------------------------------------|--
D|--------------3-----------------------------------------------------------------------|--
A|-----------------3--3--5--1--3--------------------------------10--10--10--10--10--12--|--
E|--------------------------------3--5--1--3--------------------------------------------|--
A|--1--1--1--1--------------------------------8--8--8--8--7--7--------------------------|--

Stave 5:

E|--------------------------------------8-----------------------------------
B|--------------------------------5--6-----6--------------------------------
G|--------------------------5--7--------------------------------------------
D|--------------7-----5--7--------------------------------------------------
A|-----------------8--------------------------------------------8--8--8--8--
E|--------------------------------------------------------------------------
A|--5--5--5--5--------------------------------8--8--8--8--7--7--------------

Stave 6:

E|-------------------------------------------------------------------------------------|--
B|-------------------------------------------------------------------------------------|--
G|-------------------------------------------------------------------------------------|--
D|--------------3---------------------------------------------------------------7--10--|--
A|-----------------3--3--5--1--3--------------------------------10--10--10--10---------|--
E|--------------------------------3--5--1--3-------------------------------------------|--
A|--1--1--1--1--------------------------------8--8--8--8--7--7-------------------------|--

Stave 7:

E|--------------------------------------------|-----------------------------12--13--20--
B|-----------------8--10--8------8------------|-----------------------------------------
G|---------------------------10-----10--5--7--|-----------------------------------------
D|--------------------------------------------|-----------------------------------------
A|--5--5--------------------------------------|--5--5-----------------------------------
E|--5--5--------------------------------------|--5--5-----------------------------------
A|--5--5--------------------------------------|--5--5-----------------------------------

Stave 8:

E|--------------------------------------------|--------------------------------------------------------|--
B|--------------------------------------------|--------------------------------------------------------|--
G|--------------------------------------------|--------------------------------------------------------|--
D|--------------------------------------------|--------------------------------------------------------|--
A|--------------------------------------------|--------------------------------------------------------|--
E|--5--5-----5-----5--5--5-----5-----5--5--5--|-----------------5--5--5-----5--5-----5--5--5-----5--5--|--
A|--5--5-----5-----5--5--5-----5-----5--5--5--|--5-----5-----5--5--5--5-----5--5-----5--5--5-----5--5--|--

Stave 9:

E|--------------------------------------------|---------------------------------------------------8---
B|--------------------------------------------|---------------------------------------------------8---
G|--------------------------------------------|---------------------------------------------------10--
D|--------------------------------------------|---------------------------------------------------10--
A|--------------------------------------------|-----------------5-----------3-----0--3--15--7--8--8---
E|--5--5-----5-----5--5--5-----5-----5--5--5--|-------------------------------------------------------
A|--5--5-----5-----5--5--5-----5-----5--5--5--|-----5-----5-----------5-------------------------------

Stave 10:

E|--------------------------
B|--------------------------
G|--------------------------
D|--------5--8--------5--7--
A|--5--8--------3--7--------
E|--------------------------
A|--------------------------

Stave 11:

E|--------------------------------------------------------------------------------------------------------
B|--------------------------------------------------------------------------------------------------------
G|--3--------------------------------------------------7--------------------------------------------------
D|--3--------------------------------------------------7--------------------------------------------------
A|--1--------------------------------------------------5--------------------------------------------------
E|--1-----1--1-----------------------------------------5-----5--5-----------------------------------------
A|--1-----1--1-----1--1-----1--1-----1--1--1--1--1--1--5-----5--5-----5--5-----5--5-----5--5--5--5--5--5--

Stave 12:

E|---------------------------------------------------------------------------------12--13--|--
B|-----------------------------------------------------------------------------------------|--
G|--10-----------------------------------------------5-------------------------------------|--
D|--10-----------------------------------------------5-------------------------------------|--
A|--8------------------------------------------------3-------------------------------------|--
E|--8---8--8-----------------------------------------3-----3--3----------------------------|--
A|--8---8--8-----8--8-----8--8-----8--8--8--8--8--8--3-----3--3-----7--7-----7--7----------|--

Stave 13:

E|-----------------------------------------------------|--------------------------------------------------
B|-----------------------------------------------------|--------------------------------------------------
G|-----------------------------------------------------|--------------------------------------------------
D|-----------------------------------------------------|--------------------------------------------------
A|-----------------------------------------------------|-----------------------------------------------4--
E|--5--3--5--6--5-----5--3--5--6--5-----5--3--5--6--5--|--5--3--5--6--5-----5--3--5--6--5-----5--3--5-----
A|-----------------------------------------------------|--------------------------------------------------

Stave 14:

E|-----------------------------------------------------|--------------------------------------------------
B|-----------------------------------------------------|--------------------------------------------------
G|-----------------------------------------------------|--------------------------------------------------
D|-----------------------------------------------------|--------------------------------------------------
A|--1--0--4--1--------1--0--4--1--------1--0--4--1-----|--1--0--4--1--------1--0--4--1-----1--0--4--1-----
E|-----------------------------------------------------|--------------------------------------------------
A|--------------0-----------------0-----------------0--|--------------0-----------------0--------------0--

Stave 15:

E|-----------------------------------------------------|--------------------------------------------
B|-----------------------------------------------------|--------------------------------------------
G|-----------------------------------------------------|--------------------------------------------
D|-----------------------------------------------------|--------------------------------------------
A|-----------------------------------------------------|-----------------------------------8--3--1--
E|-----------------------------------------------------|-----------------------------------8--3--1--
A|--1--0--4--1--0-----1--0--4--1--0-----1--0--4--1--0--|--1--0--4--1--0-----1--0--4--1--0--8--3--1--

Stave 16:

E|--------------------------------------------------|--------------------------------------------------
B|--------------------------------------------------|--------------------------------------------------
G|--------------------------------------------------|--------------------------------------------------
D|--7--7--7--7--7--7--7--7--7--7--7--7--7--7--7--7--|--7--7--7--7--7--7--7--7--7--7--7--7--5--5--5--5--
A|--8--8--8--8--8--8--8--8--5--5--5--5--5--5--5--5--|--8--8--8--8--8--8--8--8--5--5--5--5--3--3--3--3--
E|--6--6--6--6--6--6--6--6--5--5--5--5--5--5--5--5--|--6--6--6--6--6--6--6--6--5--5--5--5--3--3--3--3--
A|--5--5--5--5--5--5--5--5--5--5--5--5--5--5--5--5--|--5--5--5--5--5--5--5--5--5--5--5--5--3--3--3--3--

Stave 17:

E|--
B|--
G|--
D|--
A|--
E|--
A|--

http://www.guitartabcreator.com
Guitar Tab Creator is intended to store guitar tab created through the tool. It currently does not support in-line text editing. Any text you place in here will be lost. If you need to comment on your tab, please use the "Tab Notes" section located below.