Zelda - Fairy Fountain Base

Chords

01234567891011121314151617181920212223
E
B
G
D
A
E
B
0 1 2 3 4 5 6 7 8 9 10 11 12 13 14 15 16 17 18 19 20 21 22 23
(/) Slide Up  (\) Slide Down  (h) Hammer On  (p) Pull Off  (b) Bend (r) Release (v) Vibrato

Stave 1:

E|-----------|-----------------------|-----------|-----------------------|--
B|-----------|-----------------------|-----------|-----------------------|--
G|-----------|-----------5-----------|-----------|-----------5-----------|--
D|--------7--|-----7--5-----7--5--3--|--------5--|-----5--3-----7--5--3--|--
A|-----5-----|--5--------------------|-----3-----|-----------------------|--
E|--6--------|-----------------------|--5--------|--1--------------------|--

Stave 2:

E|-----------|-----------------------|-----------|-----------------------
B|-----------|-----------------------|-----------|-----------------------
G|-----------|-----------------------|-----------|-----------------5--3--
D|--------3--|-----3--2--5--3--------|--------2--|-----------7--5--------
A|-----1-----|-----------------------|-----0-----|-----7--5--------------
E|--3--------|--1--------------6--3--|--1--------|--5--------------------

Stave 3:

E|-----------|-----------------------|------------|--------------------
B|-----------|-----------------------|------------|--------4--3--------
G|-----------|-----------7-----------|------------|--5--2--------5--2--
D|--------7--|-----7--5-----7--5--3--|--------10--|--------------------
A|-----5-----|--5--------------------|-----7------|--------------------
E|--6--------|-----------------------|--8---------|--------------------

							http://www.guitartabcreator.com
Instruments
{"strings":[[[".",".",".","|",".",".",".",".",".",".",".","|",".",".",".","|",".",".",".",".",".",".",".","|"],[".",".",".","|",".",".",".",".",".",".",".","|",".",".",".","|",".",".",".",".",".",".",".","|"],[".",".",".","|",".",".",".",5,".",".",".","|",".",".",".","|",".",".",".",5,".",".",".","|"],[".",".",7,"|",".",7,5,".",7,5,3,"|",".",".",5,"|",".",5,3,".",7,5,3,"|"],[".",5,".","|",5,".",".",".",".",".",".","|",".",3,".","|",".",".",".",".",".",".",".","|"],[6,".",".","|",".",".",".",".",".",".",".","|",5,".",".","|",1,".",".",".",".",".",".","|"]],[[".",".",".","|",".",".",".",".",".",".",".","|",".",".",".","|",".",".",".",".",".",".","."],[".",".",".","|",".",".",".",".",".",".",".","|",".",".",".","|",".",".",".",".",".",".","."],[".",".",".","|",".",".",".",".",".",".",".","|",".",".",".","|",".",".",".",".",".",5,3],[".",".",3,"|",".",3,2,5,3,".",".","|",".",".",2,"|",".",".",".",7,5,".","."],[".",1,".","|",".",".",".",".",".",".",".","|",".",0,".","|",".",7,5,".",".",".","."],[3,".",".","|",1,".",".",".",".",6,3,"|",1,".",".","|",5,".",".",".",".",".","."]],[[".",".",".","|",".",".",".",".",".",".",".","|",".",".",".","|",".",".",".",".",".","."],[".",".",".","|",".",".",".",".",".",".",".","|",".",".",".","|",".",".",4,3,".","."],[".",".",".","|",".",".",".",7,".",".",".","|",".",".",".","|",5,2,".",".",5,2],[".",".",7,"|",".",7,5,".",7,5,3,"|",".",".",10,"|",".",".",".",".",".","."],[".",5,".","|",5,".",".",".",".",".",".","|",".",7,".","|",".",".",".",".",".","."],[6,".",".","|",".",".",".",".",".",".",".","|",8,".",".","|",".",".",".",".",".","."]]],"numberofstrings":6,"notes":["E","B","G","D","A","E","B"],"capo":0,"stringnotes":["E4","B3","G3","D3","A2","E2"],"comments":["Stave 1:","Stave 2:","Stave 3:"],"timing":[["W","W","W",null,"W","W","W","W","W","W","W",null,"W","W","W","W","W","W","W","W","W","W","W"],["W","W","W",null,"W","W","W","W","W","W","W",null,"W","W","W",null,"W","W","W","W","W","W","W"],["W","W","W",null,"W","W","W","W","W","W","W",null,"W","W","W",null,"W","W","W","W","W","W"]],"timingvisible":false,"tabcounter":22,"stave":2,"totalstaves":3,"instrument":"6guitar","selectedtuning":"6_standard","version":"13"}

Member for

3 years 7 months
Submitted by victor_o_silva on Sat, 2020-08-01 19:09