Sound will begin in 5 seconds

marvin gaye not finished

01234567891011121314151617181920212223
E
B
G
D
A
E
B
0 1 2 3 4 5 6 7 8 9 10 11 12 13 14 15 16 17 18 19 20 21 22 23
Song Science #1: How Pros Use 6 Chords to Write Hit Songs
(/) Slide Up  (\) Slide Down  (h) Hammer On  (p) Pull Off  (b) Bend (r) Release (v) Vibrato

Stave 1:

G|--7/9--8--7--7--7-----------7/9--7--5--7--------------
D|------------------------------------------------------
A|-------------------0--5--5----------------5--0--5--5--
E|------------------------------------------------------

Stave 2:

G|-----------------------------------5--6--7--------------
D|--------------------------------7-----------------------
A|--------3--3--4--4--5--0--5--5--------------5--0--5--5--
E|--5--5--------------------------------------------------

Stave 3:

G|-----------------------------------------------------
D|-----------------------------------------------------
A|--3--5--5--3--5-----5--5-----3--5--5--3--5-----5--5--
E|-----------------5--------5-----------------5--------

Stave 4:

G|-------5--6--7-----------------------------------------
D|--5h7-----------------------5--6--7--7-----------------
A|----------------5-----5--5-----------------5-----5--5--
E|-------------------5--------------------5-----5--------

Stave 5:

G|-----5--7--5--7-----------------------------------------
D|--7-----------------------------------------------------
A|-----------------5--5--5--5--5--5--5--5--5--5--5--5--5--
E|--------------------------------------------------------

Stave 6:

G|--------------------
D|--------4--4--6--6--
A|--5--5--------------
E|--------------------

Stave 7:

G|--------------------------------------------------------
D|-----5--5--3-----5-----5--5--3-----5-----5--5--3-----5--
A|--------------5-----------------5-----------------5-----
E|--3-----------------3-----------------3-----------------

Stave 8:

G|--------------------
D|-----5-----3-----5--
A|--------5-----5-----
E|--3-----------------

Stave 9:

G|--------------------------------------------------------------
D|-----5--5--3-----5-----5-----3-----5--5-----5-----3-----5-----
A|--------------5-----------5-----5--------------5-----5--------
E|--3-----------------3--------------------3-----------------3--

http://www.guitartabcreator.com
Guitar Tab Creator is intended to store guitar tab created through the tool. It currently does not support in-line text editing. Any text you place in here will be lost. If you need to comment on your tab, please use the "Tab Notes" section located below.