Sound will begin in 5 seconds

A Highway Got Paved Over My Future, I Drive It Getting To School

01234567891011121314151617181920212223
E
B
G
D
A
E
B
0 1 2 3 4 5 6 7 8 9 10 11 12 13 14 15 16 17 18 19 20 21 22 23
Learn to Play Guitar Online
(/) Slide Up  (\) Slide Down  (h) Hammer On  (p) Pull Off  (b) Bend (r) Release (v) Vibrato

Stave 1:

E|------8--8--12--12--13--|------8--8--12--13--
B|--10--------------------|--10----------------
G|------------------------|--------------------
D|------------------------|--------------------
A|------------------------|--------------------
E|------------------------|--------------------

Stave 2:

E|------8--8--12--12--13--|------8--8--12--13--
B|--10--------------------|--10----------------
G|------------------------|--------------------
D|------------------------|--------------------
A|------------------------|--------------------
E|------------------------|--------------------

Stave 3:

E|--12--13--8--8-----12--13--8-----12--13--8--
B|--------------------------------------------
G|--------------------------------------------
D|--------------------------------------------
A|--------------------------------------------
E|--------------------------------------------

Stave 4:

E|--12--13--8--8--12--17--15--13--12--13--8--
B|-------------------------------------------
G|-------------------------------------------
D|-------------------------------------------
A|-------------------------------------------
E|-------------------------------------------

http://www.guitartabcreator.com
Guitar Tab Creator is intended to store guitar tab created through the tool. It currently does not support in-line text editing. Any text you place in here will be lost. If you need to comment on your tab, please use the "Tab Notes" section located below.