Sound will begin in 5 seconds

Be Your Baby

Chords
01234567891011121314151617181920212223
E
B
G
D
A
E
B
0 1 2 3 4 5 6 7 8 9 10 11 12 13 14 15 16 17 18 19 20 21 22 23
(/) Slide Up  (\) Slide Down  (h) Hammer On  (p) Pull Off  (b) Bend (r) Release (v) Vibrato

Intro/Verse:

E|--0--1--3--
B|--1--1--3--
G|--0--2--4--
D|--2--3--5--
A|--3--3--5--
E|-----1--3--

Chorus:

E|--1--3--|--0--
B|--1--3--|--1--
G|--2--4--|--0--
D|--3--5--|--2--
A|--3--5--|--3--
E|--1--3--|-----

Bridge:

E|--5--3--1--3--|--5--3--0--3--|--5--3--1--3--0--
B|--5--3--1--3--|--5--3--0--3--|--5--3--1--3--0--
G|--6--4--2--4--|--6--4--1--4--|--6--4--2--4--1--
D|--7--5--3--5--|--7--5--2--5--|--7--5--3--5--2--
A|--7--5--3--5--|--7--5--2--5--|--7--5--3--5--2--
E|--5--3--1--3--|--5--3--0--3--|--5--3--1--3--0--

http://www.guitartabcreator.com
Guitar Tab Creator is intended to store guitar tab created through the tool. It currently does not support in-line text editing. Any text you place in here will be lost. If you need to comment on your tab, please use the "Tab Notes" section located below.