Sound will begin in 5 seconds

page 3

01234567891011121314151617181920212223
E
B
G
D
A
E
B
0 1 2 3 4 5 6 7 8 9 10 11 12 13 14 15 16 17 18 19 20 21 22 23
Song Science #1: How Pros Use 6 Chords to Write Hit Songs
(/) Slide Up  (\) Slide Down  (h) Hammer On  (p) Pull Off  (b) Bend (r) Release (v) Vibrato

Stave 1:

E|------------------------------------|------------------|------------------------------------------
B|--10--9--10--9h10p9------10------9--|--12--12--11--10--|--12--11--12--11--------------------------
G|---------------------11------11-----|--13--13--12--11--|------------------14--13------10------10--
D|------------------------------------|------------------|--------------------------11------11------
A|------------------------------------|------------------|------------------------------------------
E|------------------------------------|------------------|------------------------------------------

Stave 2:

E|-----------------9--11/14--13--|--------------------------------------|--
B|------9--10--11----------------|--14----------------------------------|--
G|--11---------------------------|------14--13--12----------------------|--
D|-------------------------------|------------------14--11--------------|--
A|-------------------------------|--------------------------12--11--10--|--
E|-------------------------------|--------------------------------------|--

Stave 3:

E|------------------------------------------|--9------------------------
B|------------------14--------------13--14--|-----10--------------------
G|--14--16--16--14------16--14--16----------|---------9------9----------
D|------------------------------------------|------------11-----11\7\2--
A|------------------------------------------|---------------------------
E|------------------------------------------|---------------------------

Stave 4:

E|----
B|----
G|----
D|----
A|----
E|----

Stave 5:

E|--|-------------------------------------------------
B|--|---------10--------------12--------------14------
G|--|------9------11------11------13------13------14--
D|--|--11-------------13--------------14--------------
A|--|-------------------------------------------------
E|--|-------------------------------------------------

http://www.guitartabcreator.com
Guitar Tab Creator is intended to store guitar tab created through the tool. It currently does not support in-line text editing. Any text you place in here will be lost. If you need to comment on your tab, please use the "Tab Notes" section located below.