Sound will begin in 5 seconds

maria elana edit

01234567891011121314151617181920212223
E
B
G
D
A
E
B
0 1 2 3 4 5 6 7 8 9 10 11 12 13 14 15 16 17 18 19 20 21 22 23
Song Science #1: How Pros Use 6 Chords to Write Hit Songs
(/) Slide Up  (\) Slide Down  (h) Hammer On  (p) Pull Off  (b) Bend (r) Release (v) Vibrato

Stave 1:

E|------------------------------|-----------------|------------------------------------------
B|--8--7--8--7h8p7-----8--------|--10--10--9---8--|--10--9--10--9----------------7-----7-----
G|------------------9--------7--|--11--11--10--9--|----------------12--11-----7-----7--------
D|------------------------9-----|-----------------|------------------------7--------------9--
A|------------------------------|-----------------|------------------------------------------
E|------------------------------|-----------------|------------------------------------------

Stave 2:

E|------------7--10--7----------------------|--------------------------|--
B|-----8--10------------10--8---------------|------12------10----------|--
G|--7--------------------------9--7---------|----------12------11--12--|--
D|-----------------------------------9------|--12----------------------|--
A|--------------------------------------10--|--------------------------|--
E|------------------------------------------|--------------------------|--

Stave 3:

E|--------------------------------------------------|--
B|----------------------------------------------10--|--
G|---------------7--9b11--9--10--11--9--------------|--
D|------7--8--9-------------------------11--12------|--
A|--10----------------------------------------------|--
E|--------------------------------------------------|--

Stave 4:

E|--------------------------------|-------------------
B|--------------------------------|-------------------
G|--11--12--9--11-------------11--|--9--11--9---------
D|---------------------9--10------|------------12--9--
A|-----------------12-------------|-------------------
E|--------------------------------|-------------------

http://www.guitartabcreator.com
Guitar Tab Creator is intended to store guitar tab created through the tool. It currently does not support in-line text editing. Any text you place in here will be lost. If you need to comment on your tab, please use the "Tab Notes" section located below.