Sound will begin in 5 seconds

maria elana 2 page

01234567891011121314151617181920212223
E
B
G
D
A
E
B
0 1 2 3 4 5 6 7 8 9 10 11 12 13 14 15 16 17 18 19 20 21 22 23
Song Science #1: How Pros Use 6 Chords to Write Hit Songs
(/) Slide Up  (\) Slide Down  (h) Hammer On  (p) Pull Off  (b) Bend (r) Release (v) Vibrato

Stave 1:

E|------------------------------------
B|--10--9--10--9-------------------8--
G|----------------12--11-----8--------
D|------------------------9-----9-----
A|------------------------------------
E|------------------------------------

Stave 2:

E|--------------7--9/12--11-----------------------------------
B|-----7--8--9---------------12-------------------------------
G|--9----------------------------12--11--10-------------------
D|-------------------------------------------12--9------------
A|--------------------------------------------------10--9--8--
E|------------------------------------------------------------

Stave 3:

E|----------------------------------------------
B|----------------------12--------------11--12--
G|--12--14--14--12--14------14--12--14----------
D|----------------------------------------------
A|----------------------------------------------
E|----------------------------------------------

Stave 4:

E|--7---------------------|---------------------------------------------
B|-----8------------------|--------8------------10--------------12------
G|--------7-----7---------|-----7-----9------9------11------11------12--
D|-----------9-----9\5\0--|--9-----------11-------------12--------------
A|------------------------|---------------------------------------------
E|------------------------|---------------------------------------------

http://www.guitartabcreator.com
Guitar Tab Creator is intended to store guitar tab created through the tool. It currently does not support in-line text editing. Any text you place in here will be lost. If you need to comment on your tab, please use the "Tab Notes" section located below.