Sound will begin in 5 seconds

Cavatina

01234567891011121314151617181920212223
E
B
G
D
A
E
B
0 1 2 3 4 5 6 7 8 9 10 11 12 13 14 15 16 17 18 19 20 21 22 23
Song Science #1: How Pros Use 6 Chords to Write Hit Songs
(/) Slide Up  (\) Slide Down  (h) Hammer On  (p) Pull Off  (b) Bend (r) Release (v) Vibrato

Stave 1:

E|--------------------------------------|-------------------|-----------------------------------
B|--------------------------------------|-------------------|-----------------------------------
G|-----------1-----------------1--------|--4--4--2--4--4/6--|--2--1--1--------------------------
D|--------2-----2-----------2-----2-----|-------------------|-----------4--2--4--2--2--4--1--2--
A|-----2-----------2-----2--------------|-------------------|-----------------------------------
E|--0-----------------0--------------2--|-------------------|-----------------------------------

Stave 2:

E|----------------|-------------------------|----------------------------|--
B|-------------9--|--12--12--10--12--12/14--|--10--12--12/14--12p10--12--|--
G|----------9-----|-------------------------|----------------------------|--
D|-----6/9--------|-------------------------|----------------------------|--
A|--7-------------|-------------------------|----------------------------|--
E|----------------|-------------------------|----------------------------|--

Stave 3:

E|----------------------------------------------------------|--
B|--10--9--9----------------------------------9--12--12/17--|--
G|------------11--9--11--9--9--11--8--9--8/9----------------|--
D|----------------------------------------------------------|--
A|----------------------------------------------------------|--
E|----------------------------------------------------------|--

Stave 4:

E|---------------------------------------------------------------|--
B|--17--17--16--14--14--16b17--16--14p12----------12-------------|--
G|----------------------------------------14--14------11--11/13--|--
D|---------------------------------------------------------------|--
A|---------------------------------------------------------------|--
E|---------------------------------------------------------------|--

Stave 5:

E|---------------------------|--------------|--|-------------------------|--
B|--5--7--7/9--7--5--5/7--5--|--5--7--4--5--|--|--5--7--7/9--10--11--12--|--
G|---------------------------|--------------|--|-------------------------|--
D|---------------------------|--------------|--|-------------------------|--
A|---------------------------|--------------|--|-------------------------|--
E|---------------------------|--------------|--|-------------------------|--

Stave 6:

E|----------------------------------------------------|--
B|--12--12/17--16--17--19--17--16------16-------------|--
G|---------------------------------17------18--16\14--|--
D|----------------------------------------------------|--
A|----------------------------------------------------|--
E|----------------------------------------------------|--

http://www.guitartabcreator.com
Guitar Tab Creator is intended to store guitar tab created through the tool. It currently does not support in-line text editing. Any text you place in here will be lost. If you need to comment on your tab, please use the "Tab Notes" section located below.