Sound will begin in 5 seconds

Clubbed To Death Piano Solo (for 6 string bass)

Chords
01234567891011121314151617181920212223
E
B
G
D
A
E
B
0 1 2 3 4 5 6 7 8 9 10 11 12 13 14 15 16 17 18 19 20 21 22 23
Song Science #1: How Pros Use 6 Chords to Write Hit Songs
(/) Slide Up  (\) Slide Down  (h) Hammer On  (p) Pull Off  (b) Bend (r) Release (v) Vibrato

Stave 1:

C|------------------10----------12-----------------------------------------14---------------------------------
G|----------12--------------12----------12------11------14---------12--------------15------15----------15\14--
D|------12------12------12------7---12------12------12------8--12------12------12------12--10------13---------
A|--10-----------------------------------------------------------------------------------------15-------------
E|------------------------------5---------------------------6------------------------------8------------------
B|--8---------------------------------------------------------------------------------------------------------

Stave 2:

C|------------------------------10------14------19----------------------19------19--------------14------17--
G|------17--------------12----------12------15----------15------20----------20----------16----------16------
D|--11------11------12------12----------------------17------17------17--------------17------17--------------
A|----------------------------------------------18------------------------------14--------------------------
E|--------------10------------------------------------------------------------------------------------------
B|----------------------------------------------------------------------------------------------------------

Stave 3:

C|--17-------------------12--15--
G|---------5/10------12----------
D|------5--------13--------------
A|--15---------------------------
E|-------------------------------
B|-------------------------------

Stave 4:

C|------------------10--------------12-------------14--------------
G|----------12--------------12--------------8--12--------------11--
D|------12------12------12------12------10-------------10--12------
A|--10-------------------------------------------------------------
E|----------------------------------8--------------10--------------
B|--8--------------------------------------------------------------

Stave 5:

C|---------------------------------------------10------14------19--
G|--12---------------------------7-----12----------12------15--0---
D|------------------------8---------8------12----------------------
A|--10------------10---------10------------------------------------
E|---------6--10------10-------------------------------------------
B|------8----------------------------------------------------------

http://www.guitartabcreator.com
Guitar Tab Creator is intended to store guitar tab created through the tool. It currently does not support in-line text editing. Any text you place in here will be lost. If you need to comment on your tab, please use the "Tab Notes" section located below.