Sound will begin in 5 seconds

Loan and the lamb

01234567891011121314151617181920212223
E
B
G
D
A
E
B
0 1 2 3 4 5 6 7 8 9 10 11 12 13 14 15 16 17 18 19 20 21 22 23
(/) Slide Up  (\) Slide Down  (h) Hammer On  (p) Pull Off  (b) Bend (r) Release (v) Vibrato

Stave 1:

E|------------------------------------
B|--10--12--14-----10--12--12\15--14--
G|------------------------------------
D|------------------------------------
A|------------------------------------
E|------------------------------------

Stave 2:

E|--------------------------------------
B|----------12--14--12------12--14--12--
G|------14--------------14--------------
D|--14----------------------------------
A|--------------------------------------
E|--------------------------------------

Stave 3:

E|---------------------------------------------
B|---------------------------------------------
G|---------------------------------------------
D|--5--5--5--5--5--5--5--5h7--7--5h7--7--7--7--
A|---------------------------------------------
E|---------------------------------------------

Stave 4:

E|--------------------------------
B|--------------------------------
G|-----------7--4-----------7--4--
D|--5--5--5--------5--5--5--------
A|--------------------------------
E|--------------------------------

Stave 5:

E|--
B|--
G|--
D|--
A|--
E|--

http://www.guitartabcreator.com
Guitar Tab Creator is intended to store guitar tab created through the tool. It currently does not support in-line text editing. Any text you place in here will be lost. If you need to comment on your tab, please use the "Tab Notes" section located below.