Sound will begin in 5 seconds

The Unknown Forces of Earth

01234567891011121314151617181920212223
E
B
G
D
A
E
B
0 1 2 3 4 5 6 7 8 9 10 11 12 13 14 15 16 17 18 19 20 21 22 23
Song Science #1: How Pros Use 6 Chords to Write Hit Songs
(/) Slide Up  (\) Slide Down  (h) Hammer On  (p) Pull Off  (b) Bend (r) Release (v) Vibrato

Stave 1:

E|--11-----11-----11-----11-----11-----11-----11-----11-----
B|------9------9------9------9------8------8------8------8--
G|----------------------------------------------------------
D|----------------------------------------------------------
A|----------------------------------------------------------
E|----------------------------------------------------------

Stave 2:

E|--11------11------11------11------11-----11-----11-----11-----
B|--------------------------------------------------------------
G|------10------10------10------10------8------8------8------8--
D|--------------------------------------------------------------
A|--------------------------------------------------------------
E|--------------------------------------------------------------

Stave 3:

E|------------------------------------------------------------------
B|------------------------------------------------------------------
G|------------------------------------------------------------------
D|--13--13--13--13--13--13--13--13--10--10--10--10--10--10--10--10--
A|--13--13--13--13--13--13--13--13--10--10--10--10--10--10--10--10--
E|--11--11--11--11--11--11--11--11--8---8---8---8---8---8---8---8---

Stave 4:

E|--------------------------------------------------
B|--------------------------------------------------
G|--------------------------------------------------
D|--8--8--8--8--8--8--8--8--6--6--6--6--6--6--6--6--
A|--8--8--8--8--8--8--8--8--6--6--6--6--6--6--6--6--
E|--6--6--6--6--6--6--6--6--4--4--4--4--4--4--4--4--

Stave 5:

E|----------------------------------------------------------------------------------------------------------------------------------
B|----------------------------------------------------------------------------------------------------------------------------------
G|--13--13--13--13--13--13--15--15--17--17--17--17--17--17--17--17--12--12--12--12--12--12--14--14--10--10--10--10--10--10--10--10--
D|----------------------------------------------------------------------------------------------------------------------------------
A|--11--11--11--11--11--11--13--13--15--15--15--15--15--15--15--15--10--10--10--10--10--10--12--12--8---8---8---8---8---8---8---8---
E|----------------------------------------------------------------------------------------------------------------------------------

http://www.guitartabcreator.com
Guitar Tab Creator is intended to store guitar tab created through the tool. It currently does not support in-line text editing. Any text you place in here will be lost. If you need to comment on your tab, please use the "Tab Notes" section located below.