Sound will begin in 5 seconds

Terraforming

01234567891011121314151617181920212223
E
B
G
D
A
E
B
0 1 2 3 4 5 6 7 8 9 10 11 12 13 14 15 16 17 18 19 20 21 22 23
Song Science #1: How Pros Use 6 Chords to Write Hit Songs
(/) Slide Up  (\) Slide Down  (h) Hammer On  (p) Pull Off  (b) Bend (r) Release (v) Vibrato

Stave 1:

E|--------------------------------------------------
B|--------------------------------------------------
G|--------------------------------------------------
D|--------------------------------------------------
A|--------------------------------------------------
E|--2--2--2--5--2--2--2--2--5--5--5--5--7--7--7--7--

Stave 2:

E|----------------------------------------------------
B|----------------------------------------------------
G|----------------------------------------------------
D|----------------------------------------------------
A|----------------------------------------------------
E|--2--2--2--5--2--2--2--2--5--5--5--5--7--7--12--12--

Stave 3:

E|--------------------------------------------------
B|--------------------------------------------------
G|--------------------------------------------------
D|--------------------------------------------------
A|--------------------------------------------------
E|--2--2--2--5--2--2--2--2--5--5--5--5--7--7--7--7--

Stave 4:

E|------------------------------------------------------
B|------------------------------------------------------
G|------------------------------------------------------
D|------------------------------------------------------
A|------------------------------------------------------
E|--2--2--2--5--2--2--2--2--5--5--5--5--7--7--12--0-----

Stave 5:

E|--------------
B|--------------
G|-----6--------
D|--2--6--6--4--
A|--2--4--6--4--
E|--0-----4--2--

Stave 6:

E|-----------
B|-----------
G|-----------
D|--4--2--5--
A|--4--2--5--
E|--2--0--3--

Stave 7:

E|--------------------
B|--------------------
G|--6--9--6--9--4--5--
D|--------------------
A|--4--7--4--7--2--3--
E|--------------------

Stave 8:

E|--------------------
B|--------------------
G|--------6--4--------
D|--7--7--6--4--------
A|--7--7--4--2--------
E|--5--4--------------

Stave 9:

E|--7--7--7--7--7--7--7--7--11--11--11--11--11--11--11--11--------------------------------------------------
B|----------------------------------------------------------------------------------------------------------
G|----------------------------------------------------------------------------------------------------------
D|----------------------------------------------------------------------------------------------------------
A|----------------------------------------------------------------------------------------------------------
E|----------------------------------------------------------------------------------------------------------

Stave 10:

E|--7--7--7--7--7--7--7--7--11--11--11--11--12--12--12--12--
B|----------------------------------------------------------
G|----------------------------------------------------------
D|----------------------------------------------------------
A|----------------------------------------------------------
E|----------------------------------------------------------

Stave 11:

E|-----------------------
B|-----------------------
G|-----------------------
D|-----------2-----------
A|--------4-----4--2--4--
E|--2--2-----------------

http://www.guitartabcreator.com
Guitar Tab Creator is intended to store guitar tab created through the tool. It currently does not support in-line text editing. Any text you place in here will be lost. If you need to comment on your tab, please use the "Tab Notes" section located below.