Sound will begin in 5 seconds

Nekyia

Chords
01234567891011121314151617181920212223
E
B
G
D
A
E
B
0 1 2 3 4 5 6 7 8 9 10 11 12 13 14 15 16 17 18 19 20 21 22 23
Song Science #1: How Pros Use 6 Chords to Write Hit Songs
(/) Slide Up  (\) Slide Down  (h) Hammer On  (p) Pull Off  (b) Bend (r) Release (v) Vibrato

Stave 1:

D|-----------------------------------------------------------------------------------------0--0--------------------
A|-----------------------------------------------------------------------------------------5--5--------------------
F|-----------------------------------------------------------------------------------------6--6--------------------
C|------------------------------------------------------------------------5h7--7-----------------------------5-----
G|--------------------------------------------------------------------------------------------------------6-----6--
C|--12--13--0--0--12--13--0--0--12--13--0--0--10--7--7--7--8--5--3--3--3----------0--0--0--------5--5--5-----------

Stave 2:

D|----------------------------------------------------------
A|----------------------------------------------------------
F|--7--10------5-----5--------7--10----------5-----5--7-----
C|--5------12--5-----5--------5------12--12--5-----5-----7--
G|--6--8---10--3-----3--6-----6--8---10--12--3-----3--------
C|--5------10--3--0--3-----8--5------10--12--3--0--3--------

http://www.guitartabcreator.com
Guitar Tab Creator is intended to store guitar tab created through the tool. It currently does not support in-line text editing. Any text you place in here will be lost. If you need to comment on your tab, please use the "Tab Notes" section located below.