Sound will begin in 5 seconds

ideas

01234567891011121314151617181920212223
E
B
G
D
A
E
B
0 1 2 3 4 5 6 7 8 9 10 11 12 13 14 15 16 17 18 19 20 21 22 23
Song Science #1: How Pros Use 6 Chords to Write Hit Songs
(/) Slide Up  (\) Slide Down  (h) Hammer On  (p) Pull Off  (b) Bend (r) Release (v) Vibrato

Stave 1:

E|--------------------------------------------------
B|--3--3--------------0--0--3--3--------------2--2--
G|--------4--4--2--2--------------4--4--2--2--------
D|--------------------------------------------------
A|--------------------------------------------------
E|--------------------------------------------------

Stave 2:

E|-----------
B|-----------
G|-----4--7--
D|--7--4--7--
A|--7--2--5--
E|--5--------

Stave 3:

E|--------------------------------------------------
B|--7--7--7--7--7--7--7--7--7--7--7--7--7--7--7--7--
G|--7--7--7--7--6--6--6--6--4--4--4--4--0--0--0--0--
D|--------------------------------------------------
A|--------------------------------------------------
E|--------------------------------------------------

Stave 4:

E|-----------------------------------------------
B|-----------------------------------------------
G|-----------------------------------------------
D|-----------------------------------------------
A|--------7--------5--------3-----2--0--1--0--2--
E|--0--0-----0--0-----0--0-----0-----------------

Stave 5:

E|-----0--0-----
B|--3--2--0-----
G|--4--2--1--3--
D|--4--2--2--4--
A|--2--0--2--4--
E|--------0--2--

Stave 6:

E|-----------------------------------------------------------------------------------------------
B|--7--8--8--8--8--8--8--8--5--6--6--6--6--6--6--0--2--2--2--2--2--2--2--0--2--2--2--2--2--2--2--
G|--7--7--7--7--7--7--7--7--5--5--5--5--5--5--5--1--1--1--1--1--1--1--1--1--1--1--1--1--1--1--1--
D|--7--7--7--7--7--7--7--7--5--5--5--5--5--5--5--0--0--0--0--0--0--0--0--2--2--2--2--2--2--2--2--
A|-----------------------------------------------------------------------------------------------
E|-----------------------------------------------------------------------------------------------

Stave 7:

E|------------------------------------------------------------------------------------------------
B|------------------------------------------------------------------------------------------------
G|------------------------------14--14----------12--12--------9--9--------7--7--------------------
D|--9--9--9--9--12--12--14--14----------12--12----------7--7--------7--7--------------------------
A|------------------------------------------------------------------------------------------------
E|------------------------------------------------------------------------------------------------

Stave 8:

E|--------------------------------------------------------------------------------------------------
B|--------------------------------------------------------------3--3--7--7--8--8--8--8--8--8--8--8--
G|--------------------------------------------------------4--4--------------------------------------
D|--3--3--------3--3--------------------------------5--5--------------------------------------------
A|--------5--5--------3--3--3--3--3--3--------------------------------------------------------------
E|--------------------------------------3--3--3--3--------------------------------------------------

Stave 9:

E|----------------------------------------------------------------------------------------------
B|----------------------------------------------------------------------------------5--5--3--3--
G|--7--7----------------------------------------------------------------------------------------
D|----------------------------------------------------------------------------------------------
A|--------8--8--5--5--5--5--3--3--3--3--------------12--12--12--12--12--10--12--10--------------
E|--------------------------------------1--1--1--1----------------------------------------------

Stave 10:

E|--------------------------------------------------
B|--5--5--5--5--3--3--3--3--1--1--1--3--0--0--0--0--
G|--------------------------------------------------
D|--------------------------------------------------
A|--------------------------------------------------
E|--------------------------------------------------

http://www.guitartabcreator.com
Guitar Tab Creator is intended to store guitar tab created through the tool. It currently does not support in-line text editing. Any text you place in here will be lost. If you need to comment on your tab, please use the "Tab Notes" section located below.