?????

(/) Slide Up  (\) Slide Down  (h) Hammer On  (p) Pull Off  (b) Bend (r) Release (v) Vibrato

Stave 1:

E|--------1-----------------
B|-----2-----2-----2-----2--
G|--1-----------1-----1-----
D|--------------------------
A|--------------------------
E|--------------------------

Stave 2:

E|--------7-----------------
B|-----7-----7-----7-----7--
G|--7-----------7-----7-----
D|--------------------------
A|--------------------------
E|--------------------------

Stave 3:

E|----------9----------------------
B|------10-----10------10------10--
G|--11-------------11------11------
D|---------------------------------
A|---------------------------------
E|---------------------------------

Stave 4:

E|--9---
B|--10--
G|--11--
D|------
A|------
E|------

Stave 5:

E|--------------
B|--------------
G|--4-----------
D|--4--2--7--5--
A|--2--2--7--5--
E|-----0--5--3--

Stave 6:

E|---------------------------------------------------
B|---------------------------------------------------
G|--9--9--9--13--11--11--11--6--6--6--6--4--4--7--8--
D|---------------------------------------------------
A|--7--7--7--11--9---9---9---4--4--4--4--2--2--5--6--
E|---------------------------------------------------

http://www.guitartabcreator.com
Guitar Tab Creator is intended to store guitar tab created through the tool. It currently does not support in-line text editing. Any text you place in here will be lost. If you need to comment on your tab, please use the "Tab Notes" section located below.