Sound will begin in 5 seconds

Hurrican of Hallucination

Chords
01234567891011121314151617181920212223
E
B
G
D
A
E
B
0 1 2 3 4 5 6 7 8 9 10 11 12 13 14 15 16 17 18 19 20 21 22 23
Song Science #1: How Pros Use 6 Chords to Write Hit Songs
(/) Slide Up  (\) Slide Down  (h) Hammer On  (p) Pull Off  (b) Bend (r) Release (v) Vibrato

Stave 1:

E|-----------------------------------------
B|-----------------------------------------
G|-----------------------------------------
D|-----------7-----8-----------------------
A|-----------5-----6-----5--7--8--7--5--7--
E|--0--0--0-----0-----0--3--5--6--5--3--5--

Stave 2:

E|--------------------------------------------------
B|--------------------------------------------------
G|--------------------------------------------------
D|--------------7--------8--------------------------
A|--------------5--------6--------5--7--8--7--5--7--
E|--0--0--0--0-----0--0-----0--0--3--5--6--5--3--5--

Stave 3:

E|-----------------------------------
B|-----------------------------------
G|-----------------------------------
D|--2--------------------------------
A|--2--2--3--7--6--2--3--7--6--3--5--
E|--0--2--3--7--6--2--3--7--6--3--5--

Stave 4:

E|-----------------------------------------
B|-----------------------------------------
G|-----------------------------------------
D|--7-----------7--8-----------------5--4--
A|--5--5--5--5--5--6--6--6--6--6--6--3--2--
E|-----------------------------------------

Stave 5:

E|-----------------------------------
B|-----------------------------------
G|-----------------------------------
D|--7-----7--8-----------------5--4--
A|--5--5--5--6--6--6--6--6--6--3--2--
E|-----------------------------------

Stave 6:

E|-----------------------------------------
B|-----------------------------------------
G|-----------------------------------------
D|--2-----------2--------2-----------------
A|--2-----2--3--2--------2-----2--3--7--6--
E|--0--0--2--3--0--0--0--0--0--2--3--7--6--

Stave 7:

E|-----------------------------------------------
B|-----------------------------------------------
G|-----------------------------------------------
D|--2--------2-----------2--------2--------------
A|--2--------2--------5--2--------2--------8--7--
E|--0--0--0--0--0--0--3--0--0--0--0--0--0--6--5--

Stave 8:

E|--------------------------------------------------------------------------------------------
B|--------------------------------------------------------------------------------------------
G|--------------------------------------------------------------------------------------5-----
D|--2-----------------------3-----------6-----6--3--2--------------2-----------------------6--
A|--2-----------5-----------3-----------6-----6--3--2--------------2--------------------------
E|--0--0--0--0--3--0--0--0--1--0--0--0--4--0--4--1--0--0--0--0--0--0--0--0--0--0--0--0--------

Stave 9:

E|------------
B|------------
G|------------
D|--10--7--9--
A|--8---5--7--
E|------------

Stave 10:

E|--------------------------------------------
B|--------------------------------------------
G|--------------------------------------------
D|--2-----------5--------4-----------8--7--5--
A|--2-----------5--------4-----------8--7--5--
E|--0--0--0--0--3--3--3--2--2--2--2--6--5--3--

http://www.guitartabcreator.com
Guitar Tab Creator is intended to store guitar tab created through the tool. It currently does not support in-line text editing. Any text you place in here will be lost. If you need to comment on your tab, please use the "Tab Notes" section located below.