Sound will begin in 5 seconds

Mental home, Sanitarium

01234567891011121314151617181920212223
E
B
G
D
A
E
B
0 1 2 3 4 5 6 7 8 9 10 11 12 13 14 15 16 17 18 19 20 21 22 23
(/) Slide Up  (\) Slide Down  (h) Hammer On  (p) Pull Off  (b) Bend (r) Release (v) Vibrato

Stave 1:

E|--------------------------------------------------------------------------------------------------
B|--------------------------------------------------------------------------------------------------
G|--------0-----------0-----------0-----------0-----------0-----------0-----------0-----------0-----
D|-----7-----7-----7-----7-----5-----5-----5-----5-----7-----7-----7-----7-----5-----5-----5-----5--
A|--5-----------4-----------3-----------2-----------5-----------4-----------3-----------2-----------
E|--------------------------------------------------------------------------------------------------

Stave 2:

E|----------------------------------------------------------------------------------------
B|----------------------------------------------------------------------------------------
G|--------0-----------0-----------0-----------0-----------0-----------0-----------0--3/4--
D|-----7-----7-----7-----7-----5-----5-----5-----5-----3-----3-----3-----3-----2----------
A|--5-----------4-----------3-----------2-----------1-----------1-----------0-------------
E|----------------------------------------------------------------------------------------

Stave 3: repeat once

E|--------------------------------------------------------
B|--------------------------------------------------------
G|--------0------------0-------------0-------------0------
D|-----9-----9-----10-----10-----11-----11-----12-----12--
A|--7-----------7-------------7-------------7-------------
E|--------------------------------------------------------

Stave 4:

E|--------------------------------------------------------------------------------------------------
B|--------------------------------------------------------------------------------------------------
G|--------0-----------0-----------0-----------0-----------0-----------0-----------0-----------0-----
D|-----7-----7-----7-----7-----5-----5-----5-----5-----7-----7-----7-----7-----5-----5-----5-----5--
A|--5-----------4-----------3-----------2-----------5-----------4-----------3-----------2-----------
E|--------------------------------------------------------------------------------------------------

Stave 5:

E|--------------------------------------------------------------------------------
B|--------------------------------------------------------------------------------
G|--------0-----------0-----------0-----------0-----------------------5--3--3/6v--
D|-----7-----7-----7-----7-----5-----5-----5-----5--------------4--3--------------
A|--5-----------4-----------3-----------2-----------3--5--6--4--------------------
E|--------------------------------------------------------------------------------

http://www.guitartabcreator.com
Guitar Tab Creator is intended to store guitar tab created through the tool. It currently does not support in-line text editing. Any text you place in here will be lost. If you need to comment on your tab, please use the "Tab Notes" section located below.