Hades - Good Riddance

Chords

01234567891011121314151617181920212223
E
B
G
D
A
E
B
0 1 2 3 4 5 6 7 8 9 10 11 12 13 14 15 16 17 18 19 20 21 22 23
(/) Slide Up  (\) Slide Down  (h) Hammer On  (p) Pull Off  (b) Bend (r) Release (v) Vibrato

Capo Fret 4

Stave 1:

E|-----------------------------------|--------------------|-----------|-------------------|-------------------|---
B|-----------4-------3---------------|------------9-------|---8-------|-------------------|-------------------|---
G|-----------------------------------|--------------------|-----------|---7-----------7---|---5---------------|---
D|-------5-------------------3-------|-------10-----------|-------8---|-------------------|-------------------|---
A|---3-----------3---1-----------1---|---8------------8---|---6-------|-------8-----------|-------6-------6---|---
E|-----------------------------------|--------------------|-----------|---6-------6-------|---4-------4-------|---

Stave 2:

E|-------------------|---------------|--------------------|-----------|-------------------|-------------------|---
B|-----------4-------|---3-----------|------------9-------|---8-------|-------------------|-------------------|---
G|-------------------|---------------|--------------------|-----------|---7-----------7---|---5---------------|---
D|-------5-----------|-------3-------|-------10-----------|-------8---|-------------------|-------------------|---
A|---3-----------3---|---1-------1---|---8------------8---|---6-------|-------8-----------|-------6-------6---|---
E|-------------------|---------------|--------------------|-----------|---6-------6-------|---4-------4-------|---

Stave 3:

E|---
B|---
G|---
D|---
A|---
E|---

							http://www.guitartabcreator.com
Instruments
{"strings":[[[".",".",".",".",".",".",".",".","|",".",".",".",".","|",".",".","|",".",".",".",".","|",".",".",".",".","|"],[".",".",4,".",3,".",".",".","|",".",".",9,".","|",8,".","|",".",".",".",".","|",".",".",".",".","|"],[".",".",".",".",".",".",".",".","|",".",".",".",".","|",".",".","|",7,".",".",7,"|",5,".",".",".","|"],[".",5,".",".",".",".",3,".","|",".",10,".",".","|",".",8,"|",".",".",".",".","|",".",".",".",".","|"],[3,".",".",3,1,".",".",1,"|",8,".",".",8,"|",6,".","|",".",8,".",".","|",".",6,".",6,"|"],[".",".",".",".",".",".",".",".","|",".",".",".",".","|",".",".","|",6,".",6,".","|",4,".",4,".","|"]],[[".",".",".",".","|",".",".",".","|",".",".",".",".","|",".",".","|",".",".",".",".","|",".",".",".",".","|"],[".",".",4,".","|",3,".",".","|",".",".",9,".","|",8,".","|",".",".",".",".","|",".",".",".",".","|"],[".",".",".",".","|",".",".",".","|",".",".",".",".","|",".",".","|",7,".",".",7,"|",5,".",".",".","|"],[".",5,".",".","|",".",3,".","|",".",10,".",".","|",".",8,"|",".",".",".",".","|",".",".",".",".","|"],[3,".",".",3,"|",1,".",1,"|",8,".",".",8,"|",6,".","|",".",8,".",".","|",".",6,".",6,"|"],[".",".",".",".","|",".",".",".","|",".",".",".",".","|",".",".","|",6,".",6,".","|",4,".",4,".","|"]],[[],[],[],[],[],[]]],"numberofstrings":6,"notes":["E","B","G","D","A","E","B"],"capo":"4","stringnotes":["E4","B3","G3","D3","A2","E2"],"comments":["Stave 1:","Stave 2:","Stave 3:"],"timing":[["W","W","W","W","W","W","W",null,"W","W","W","W","W",null,"W","W","W","W","W","W","W",null,"W","W","W","W"],["W","W","W","W",null,"W","W","W",null,"W","W","W","W",null,"W","W","W","W","W","W","W",null,"W","W","W","W"],[]],"timingvisible":false,"tabcounter":0,"stave":2,"totalstaves":3,"instrument":"6guitar","selectedtuning":"6_standard","version":"13"}

Member for

1 month 2 weeks
Submitted by Val on Mon, 2020-10-19 09:01