Sound will begin in 5 seconds

Drive Home Verse

Chords
01234567891011121314151617181920212223
E
B
G
D
A
E
B
0 1 2 3 4 5 6 7 8 9 10 11 12 13 14 15 16 17 18 19 20 21 22 23
Song Science #1: How Pros Use 6 Chords to Write Hit Songs
(/) Slide Up  (\) Slide Down  (h) Hammer On  (p) Pull Off  (b) Bend (r) Release (v) Vibrato

Stave 1:

E|------------------------------------------------------
B|--9-----11--12--11-----9------9-----------------------
G|--------------------------12--------12--10--9--10--9--
D|------------------------------------------------------
A|------------------------------------------------------
E|------------------------------------------------------

Stave 2:

E|------------------------------------------------------
B|--9-----11--12--11-----9------9-----------------9/11--
G|--------------------------12--------12--10--12--------
D|------------------------------------------------------
A|------------------------------------------------------
E|------------------------------------------------------

Stave 3:

E|------------------------------------------------------------------------
B|------------------------------------------------------------------------
G|--9-----11--12--11-----9------9-----------------------8/11-----11\8-----
D|--------------------------12--------12--10--9--10--9-----------------9--
A|------------------------------------------------------------------------
E|------------------------------------------------------------------------

Stave 4:

E|-----------------------------|-----------------------------|-----------------------------|--
B|-----------------------------|--------------------------3--|-----------------------------|--
G|--------4-----5-----2-----4--|--------4-----5-----2-----2--|--------4-----5-----2-----4--|--
D|--2-----4-----5-----2-----4--|--2-----4-----5-----2-----0--|--2-----4-----5-----2-----4--|--
A|--2-----2-----3-----0-----2--|--2-----2-----3-----0--------|--2-----2-----3-----0-----2--|--
E|--0--------------------------|--0--------------------------|--0--------------------------|--

http://www.guitartabcreator.com
Guitar Tab Creator is intended to store guitar tab created through the tool. It currently does not support in-line text editing. Any text you place in here will be lost. If you need to comment on your tab, please use the "Tab Notes" section located below.