Sound will begin in 5 seconds

Drive Home

01234567891011121314151617181920212223
E
B
G
D
A
E
B
0 1 2 3 4 5 6 7 8 9 10 11 12 13 14 15 16 17 18 19 20 21 22 23
Song Science #1: How Pros Use 6 Chords to Write Hit Songs
(/) Slide Up  (\) Slide Down  (h) Hammer On  (p) Pull Off  (b) Bend (r) Release (v) Vibrato

Stave 1:

E|------------------------------------------------------------------------------------------
B|------------------------------------------------------------------------------------------
G|--9--11b12--------11b12--------11b12r11--9-----------------------------------------5--10--
D|------------------------------------------------------------------------------------------
A|------------------------------------------------------------------------------------------
E|------------------------------------------------------------------------------------------

Stave 2:

E|-----------------------------------------------------------
B|--10/12----------------------------------------------------
G|---------12--11--12--9/6--------9--11--11b13-----11--9--6--
D|-----------------------------------------------------------
A|-----------------------------------------------------------
E|-----------------------------------------------------------

Stave 3:

E|------------------------------------------
B|------------------------------------------
G|--6/4--6b7-----4--2--4--------2--4--------
D|------------------------------------5--2--
A|------------------------------------------
E|------------------------------------------

Stave 4:

E|-----------------------------------------------12--14--16--17b19-----17--
B|----------------------------------7--9--12b14----------------------------
G|-------------------------------9-----------------------------------------
D|--4--5--4-----5--4--2-----2/7--------------------------------------------
A|-------------------------------------------------------------------------
E|-------------------------------------------------------------------------

Stave 5:

E|--15-----12b14-----10--------------------------------------------------
B|-----------------------12--10h12r10--8--------------10h12--------------
G|-------------------------------------------9h11h12---------9h11h12p11--
D|-----------------------------------------------------------------------
A|-----------------------------------------------------------------------
E|-----------------------------------------------------------------------

Stave 6:

E|--------------------------------------------------------
B|------------------------------------------------10--12--
G|--11--9\7--9--6-----6b9-----11b13-----11b12-------------
D|--------------------------------------------------------
A|--------------------------------------------------------
E|--------------------------------------------------------

Stave 7:

E|--------------------------------------------------------------------
B|--15b17--17b19-----17--19--12/10-----8p7h8--10p7h8--10p7h8--10p7\5--
G|--------------------------------------------------------------------
D|--------------------------------------------------------------------
A|--------------------------------------------------------------------
E|--------------------------------------------------------------------

Stave 8:

E|------------------------------------9/12h15--12h15--
B|--5--7--5h7--7b8r7--5\2/5-----9h10------------------
G|----------------------------------------------------
D|----------------------------------------------------
A|----------------------------------------------------
E|----------------------------------------------------

Stave 9:

E|-------------------19b22r19--17h19--15--14h15-------------
B|-----15b17--17b20------------------------------17--15h17--
G|----------------------------------------------------------
D|----------------------------------------------------------
A|----------------------------------------------------------
E|--0-------------------------------------------------------

Stave 10:

E|-----------------------------------------------------------9h10h11h12p11p10p9h10h11/
B|--11b12r11--9--11--9--6-----6h7h9--6--9/11--7--9-----9h10---------------------------
G|-------------------------7----------------------------------------------------------
D|------------------------------------------------------------------------------------
A|------------------------------------------------------------------------------------
E|------------------------------------------------------------------------------------

Stave 11:

E|--12--14--12------12--14--16h17h16--14------12----------------------------------------------------
B|--------------14------------------------14------12--14------12------------------------------------
G|--------------------------------------------------------13------12--11--10------------------------
D|----------------------------------------------------------------------------14--13--12\9----------
A|------------------------------------------------------------------------------------------10------
E|----------------------------------------------------------------------------------------------12--

Stave 12:

E|--
B|--
G|--
D|--
A|--
E|--

Stave 13:

E|--------------------------
B|--7--9--------------------
G|--------7b9r7--7b9--7-----
D|-----------------------9--
A|--------------------------
E|--------------------------

Stave 14:

E|-----------------------------
B|-----------------------------
G|--7--9-----------------------
D|--------7b9r7-----7b9--5-----
A|--------------------------7--
E|-----------------------------

Stave 15:

E|------
B|------
G|--12--
D|------
A|------
E|------

Stave 16:

E|--
B|--
G|--
D|--
A|--
E|--

http://www.guitartabcreator.com
Guitar Tab Creator is intended to store guitar tab created through the tool. It currently does not support in-line text editing. Any text you place in here will be lost. If you need to comment on your tab, please use the "Tab Notes" section located below.