Sound will begin in 5 seconds

Temptress solo

01234567891011121314151617181920212223
E
B
G
D
A
E
B
0 1 2 3 4 5 6 7 8 9 10 11 12 13 14 15 16 17 18 19 20 21 22 23
(/) Slide Up  (\) Slide Down  (h) Hammer On  (p) Pull Off  (b) Bend (r) Release (v) Vibrato

Stave 1:

E|--------------------------------------------------------------------------14------14--17p16p14--
B|------------------------------------------------------------------14--15------15----------------
G|--------------------------------------------14--16p14---------14--------------------------------
D|------------------------16-----------------------------16p14------------------------------------
A|----------------------------14--14--14--14------------------------------------------------------
E|--2/14--14--14--14--14--------------------------------------------------------------------------

Stave 2:

E|--17p16p14--17p16p14--17p16p14----------------
B|--------------------------------17p15p14--14--
G|----------------------------------------------
D|----------------------------------------------
A|----------------------------------------------
E|----------------------------------------------

http://www.guitartabcreator.com
Guitar Tab Creator is intended to store guitar tab created through the tool. It currently does not support in-line text editing. Any text you place in here will be lost. If you need to comment on your tab, please use the "Tab Notes" section located below.