Hail Spirit Noir - When All is Black

01234567891011121314151617181920212223
E
B
G
D
A
E
B
0 1 2 3 4 5 6 7 8 9 10 11 12 13 14 15 16 17 18 19 20 21 22 23
(/) Slide Up  (\) Slide Down  (h) Hammer On  (p) Pull Off  (b) Bend (r) Release (v) Vibrato

Stave 1:

E|--0--0-----5-----5--5-----------------------------------------------------------------%--|--
B|--3--2-----3-----3--3--------------------------------------------------------------0--%--|--
G|--2--1-----x-----x--x-----------------0--------------0--------------0-----------------%--|--
D|-----------4-----5--4-----------2--------2-----2--------2-----2--------2-----2--------%--|--
A|-----------------------------4-----4--------4-----4--------4-----4--------4-----4-----%--|--
E|--------------------------------------------------------------------------------------%--|--

Stave 2:

E|-----------------------------------------------------|-----------------------------------------------------|--
B|-----------------------------------------------------|-----------------------------------------------------|--
G|--------4-----------4-----------4-----------4--------|--------3-----------3-----------3-----------3--------|--
D|-----4-----4-----4-----4-----4-----4-----4-----4-----|-----3-----3-----3-----3-----3-----3-----3-----3-----|--
A|--6-----------6-----------6-----------6-----------6--|--5-----------5-----------5-----------5-----------5--|--
E|-----------------------------------------------------|-----------------------------------------------------|--

Stave 3:

E|-----------------------------------------------------|--------------------------------------------------|--
B|-----------------------------------------------------|--------------------------------------------------|--
G|--------2-----------2-----------3--------2--------2--|--------1-----------1-----------1-----------1-----|--
D|-----2-----2-----2-----2-----2-----2--------2--------|-----3-----3-----3-----3-----2-----2-----2-----2--|--
A|--4-----------4-----------4-----------4--------4-----|--4-----------4-----------3-----------3-----------|--
E|-----------------------------------------------------|--------------------------------------------------|--

							http://www.guitartabcreator.com
Chords

Tab Notes
WIP
Instruments
{"strings":[[[0,0,"_",5,"_",5,5,"_","_",".",".",".",".",".",".",".",".",".",".",".",".",".",".",".",".",".",".",".","%","|"],[3,2,"_",3,"_",3,3,"_","_",".",".",".",".",".",".",".",".",".",".",".",".",".",".",".",".",".",".",0,"%","|"],[2,1,"_","x4","_","x5","x5","_","_",".",".",".",0,".",".",".",".",0,".",".",".",".",0,".",".",".",".",".","%","|"],[".",".","_",4,"_",5,4,"_","_",".",2,".",".",2,".",2,".",".",2,".",2,".",".",2,".",2,".",".","%","|"],[".",".","_",".","_",".",".","_","_",4,".",4,".",".",4,".",4,".",".",4,".",4,".",".",4,".",4,".","%","|"],[".",".","_",".","_",".",".","_","_",".",".",".",".",".",".",".",".",".",".",".",".",".",".",".",".",".",".",".","%","|"]],[[".",".",".",".",".",".",".",".",".",".",".",".",".",".",".",".",".","|",".",".",".",".",".",".",".",".",".",".",".",".",".",".",".",".",".","|"],[".",".",".",".",".",".",".",".",".",".",".",".",".",".",".",".",".","|",".",".",".",".",".",".",".",".",".",".",".",".",".",".",".",".",".","|"],[".",".",4,".",".",".",4,".",".",".",4,".",".",".",4,".",".","|",".",".",3,".",".",".",3,".",".",".",3,".",".",".",3,".",".","|"],[".",4,".",4,".",4,".",4,".",4,".",4,".",4,".",4,".","|",".",3,".",3,".",3,".",3,".",3,".",3,".",3,".",3,".","|"],[6,".",".",".",6,".",".",".",6,".",".",".",6,".",".",".",6,"|",5,".",".",".",5,".",".",".",5,".",".",".",5,".",".",".",5,"|"],[".",".",".",".",".",".",".",".",".",".",".",".",".",".",".",".",".","|",".",".",".",".",".",".",".",".",".",".",".",".",".",".",".",".",".","|"]],[[".",".",".",".",".",".",".",".",".",".",".",".",".",".",".",".",".","|",".",".",".",".",".",".",".",".",".",".",".",".",".",".",".",".","|"],[".",".",".",".",".",".",".",".",".",".",".",".",".",".",".",".",".","|",".",".",".",".",".",".",".",".",".",".",".",".",".",".",".",".","|"],[".",".",2,".",".",".",2,".",".",".",3,".",".",2,".",".",2,"|",".",".",1,".",".",".",1,".",".",".",1,".",".",".",1,".","|"],[".",2,".",2,".",2,".",2,".",2,".",2,".",".",2,".",".","|",".",3,".",3,".",3,".",3,".",2,".",2,".",2,".",2,"|"],[4,".",".",".",4,".",".",".",4,".",".",".",4,".",".",4,".","|",4,".",".",".",4,".",".",".",3,".",".",".",3,".",".",".","|"],[".",".",".",".",".",".",".",".",".",".",".",".",".",".",".",".",".","|",".",".",".",".",".",".",".",".",".",".",".",".",".",".",".",".","|"]]],"numberofstrings":6,"notes":["E","B","G","D","A","E","B"],"capo":0,"stringnotes":["E4","B3","G3","D3","A2","E2"],"comments":["Stave 1:","Stave 2:","Stave 3:"],"timing":[[null,null,null,null,null,null,null,null,null,null,null,null,null,null,null,null,null,null,null,null,null,null,null,null,null,null,null,null],[null,null,null,null,null,null,null,null,null,null,null,null,null,null,null,null,null,null,null,null,null,null,null,null,null,null,null,null,null,null,null,null,null,null,null],[null,null,null,null,null,null,null,null,null,null,null,null,null,null,null,null,null,null,null,null,null,null,null,null,null,null,null,null,null,null,null,null,null,null]],"timingvisible":false,"tabcounter":35,"stave":2,"totalstaves":3,"instrument":"6guitar","selectedtuning":"6_standard","version":"13"}

Member for

1 year
Picture
About Me
uuuuuuuuuuuuuuuuuuuuuuuuuuuuuuuuuuuuuuuuuuuuuuuuuuuuuuuuuuuh
Submitted by urnbutformana on Fri, 2021-06-04 22:03