Sound will begin in 5 seconds

He doesn't know

Chords
01234567891011121314151617181920212223
E
B
G
D
A
E
B
0 1 2 3 4 5 6 7 8 9 10 11 12 13 14 15 16 17 18 19 20 21 22 23
Song Science #1: How Pros Use 6 Chords to Write Hit Songs
(/) Slide Up  (\) Slide Down  (h) Hammer On  (p) Pull Off  (b) Bend (r) Release (v) Vibrato

Stave 1:

E|-------------------------------
B|-------------------------------
G|-------------------------------
D|--------5--7--7b5--------5--7--
A|-----7----------------7--------
E|--5----------------5-----------

Stave 2:

E|-----------------------------------------------------------------------------------------------------------
B|-----------------------------------------------------------------------------------------------------------
G|--------------------------------------7--7--5--------------------------------------------7--7--5-----------
D|--7--7--7--7--7--7--7--7--7--7--7--7--7--7--5--5--5--7--------5--7--5--5h7--5h7--5h7--5--7--7--5--5--5--7--
A|--------------------------------------5--5--3--5--5--7-----7-----------------------------5--5--3--5--5--7--
E|-----------------------------------------------3--3--5--5-----------------------------------------3--3--5--

Stave 3:

E|--------------------------------------------------
B|--------------------------------------------------
G|--------------5--5--5--5--9--9--9--9--9--9--9--9--
D|--7--7--7--7--5--5--5--5--9--9--9--9--9--9--9--9--
A|--7--7--7--7--3--3--3--3--7--7--7--7--7--7--7--7--
E|--5--5--5--5--------------------------------------

Stave 4:

E|--1--1--1--1--1--5--5--5--7--7--7--7--7--5--5--5--
B|--1--1--1--1--1--5--5--5--7--7--7--7--7--5--5--5--
G|--2--2--2--2--2--6--6--6--7--7--7--7--7--5--5--5--
D|--3--3--3--3--3--7--7--7--7--7--7--7--7--5--5--5--
A|--3--3--3--3--3--7--7--7--5--5--5--5--5--3--3--3--
E|--1--1--1--1--1--5--5--5--------------------------

Stave 5:

E|--8--10---------------------------------------------------------------------------------------
B|--8--10---------------------------------------------------------------------------------------
G|--8--10--10------10------10----------10--12b10h12--10---------------8------8------10b8h10--8--
D|-------------12------12------10--12--------------------8--8--8--10-----10-----10--------------
A|----------------------------------------------------------------------------------------------
E|----------------------------------------------------------------------------------------------

Stave 6:

E|-----------------------------------------------------------------------
B|--------------------------------------------------4-----4-----6b4h6h4--
G|------8---------6-----6-----8b6h8--6-----6-----------6-----6-----------
D|--10-----10--8-----8-----8------------8-----8--6-----------------------
A|-----------------------------------------------------------------------
E|-----------------------------------------------------------------------

Stave 7:

E|--------------------------------------------------------------------------------------------------------
B|--------------------------------------------------------------------------------------------------------
G|--4--4--4--5--5--5--7--7--7--7--7--7--9--9--9--9--9--9--12--12--12--12--12--12--15--15--15--15--15--15--
D|--------------------------------------------------------------------------------------------------------
A|--------------------------------------------------------------------------------------------------------
E|--------------------------------------------------------------------------------------------------------

Stave 8:

E|----------------------------------------------------
B|----------------------------------------------------
G|--17--17--17--17--17--17--17--17--17--17--17--17\0--
D|----------------------------------------------------
A|----------------------------------------------------
E|----------------------------------------------------

http://www.guitartabcreator.com
Guitar Tab Creator is intended to store guitar tab created through the tool. It currently does not support in-line text editing. Any text you place in here will be lost. If you need to comment on your tab, please use the "Tab Notes" section located below.