Sweet Thing

01234567891011121314151617181920212223
E
B
G
D
A
E
B
0 1 2 3 4 5 6 7 8 9 10 11 12 13 14 15 16 17 18 19 20 21 22 23
(/) Slide Up  (\) Slide Down  (h) Hammer On  (p) Pull Off  (b) Bend (r) Release (v) Vibrato

Intro

E|--9--9-----7--7-----9---------------
B|--9--9-----7--7-----9--7-5--5--5-7--
G|-----------------------6-4--4--4-6--
D|------------------------------------
A|------------------------------------
E|------------------------------------

Verse

E|-----------------
B|--5--------7-----
G|--6--------6-----
D|--6--------7-----
A|-----------5-----
E|--5--------------

							http://www.guitartabcreator.com
Chords

Instruments
{"strings":[[[9,9,".",7,7,".",9,".",".",".",".",".",".","."],[9,9,".",7,7,".",9,7,"/",5,5,5,"/",7],[".",".",".",".",".",".",".",6,"/",4,4,4,"/",6],[".",".",".",".",".",".",".",".",".",".",".",".",".","."],[".",".",".",".",".",".",".",".",".",".",".",".",".","."],[".",".",".",".",".",".",".",".",".",".",".",".",".","."]],[[".",".",".",".","."],[5,".",".",7,"."],[6,".",".",6,"."],[6,".",".",7,"."],[".",".",".",5,"."],[5,".",".",".","."]]],"numberofstrings":6,"notes":["E","B","G","D","A","E","B"],"capo":0,"stringnotes":["E4","B3","G3","D3","A2","E2"],"comments":["Intro","Verse"],"timing":[[null,"W","W",null,"W","W",null,"W",null,"W","W","W","W",null,"W"],[null,"W",null,null,"W"]],"timingvisible":false,"tabcounter":5,"stave":1,"totalstaves":2,"instrument":"6guitar","selectedtuning":"6_standard","version":"13"}

Member for

5 years 10 months
Submitted by Unterreiner on Thu, 2021-01-28 10:42