Carriage

01234567891011121314151617181920212223
E
B
G
D
A
E
B
0 1 2 3 4 5 6 7 8 9 10 11 12 13 14 15 16 17 18 19 20 21 22 23
(/) Slide Up  (\) Slide Down  (h) Hammer On  (p) Pull Off  (b) Bend (r) Release (v) Vibrato

Rhythm For Intro

E|--------------------------------------------------------------------------------------------------------------------------
B|--------------------------------------------------------------------------------------------------------------------------
G|--------------------------------------------------------------8--8--8--8-----8--8--8--8-----8--8--8--8-----8--8--8--8-----
D|--8--8--8--8-----8--8--8--8-----8--8--8--8-----8--8--8--8-----8--8--8--8-----8--8--8--8-----8--8--8--8-----8--8--8--8-----
A|--8--8--8--8-----8--8--8--8-----8--8--8--8-----8--8--8--8-----6--6--6--6-----6--6--6--6-----6--6--6--6-----6--6--6--6-----
E|--6--6--6--6-----6--6--6--6-----6--6--6--6-----6--6--6--6-----------------------------------------------------------------

Lead For Intro

E|--6-----------6-----------6-----------6--------------
B|-----------6-----------6-----------6-----------6-----
G|-----5--7--------5--7--------5--7--------5--7--------
D|-----------------------------------------------------
A|-----------------------------------------------------
E|-----------------------------------------------------

							http://www.guitartabcreator.com
Chords

Instruments
{"strings":[[[".","_","_","_","_","_","_","_","_","_","_","_","_","_","_","_","_","_","_","_","_","_","_","_","_","_","_","_","_","_","_","_","_","_","_","_","_","_","_","_"],[".","_","_","_","_","_","_","_","_","_","_","_","_","_","_","_","_","_","_","_","_","_","_","_","_","_","_","_","_","_","_","_","_","_","_","_","_","_","_","_"],[".","_","_","_","_","_","_","_","_","_","_","_","_","_","_","_","_","_","_","_",8,8,8,8,"_",8,8,8,8,"_",8,8,8,8,"_",8,8,8,8,"_"],[8,8,8,8,"_",8,8,8,8,"_",8,8,8,8,"_",8,8,8,8,"_",8,8,8,8,"_",8,8,8,8,"_",8,8,8,8,"_",8,8,8,8,"_"],[8,8,8,8,"_",8,8,8,8,"_",8,8,8,8,"_",8,8,8,8,"_",6,6,6,6,"_",6,6,6,6,"_",6,6,6,6,"_",6,6,6,6,"_"],[6,6,6,6,"_",6,6,6,6,"_",6,6,6,6,"_",6,6,6,6,"_","_","_","_","_","_","_","_","_","_","_","_","_","_","_","_","_","_","_","_","_"]],[[6,"_","_","_",6,"_","_","_",6,"_","_","_",6,"_","_","_","_"],[".","_","_",6,"_","_","_",6,"_","_","_",6,"_","_","_",6,"_"],[".",5,7,"_","_",5,7,"_","_",5,7,"_","_",5,7,"_","_"],[".","_","_","_","_","_","_","_","_","_","_","_","_","_","_","_","_"],[".","_","_","_","_","_","_","_","_","_","_","_","_","_","_","_","_"],[".","_","_","_","_","_","_","_","_","_","_","_","_","_","_","_","_"]]],"numberofstrings":6,"notes":["E","B","G","D","A","E","B"],"capo":0,"stringnotes":["E4","B3","G3","D3","A2","E2"],"comments":["Rhythm For Intro","Lead For Intro"],"timing":[["W","W","W","W","W","W","W","W","W","W","W","W","W","W","W","W","W","W","W","W","W","W","W","W","W","W","W","W","W","W","W","W","W","W","W","W","W","W","W","W","W"],["W","W","W","W","W","W","W","W","W","W","W","W","W","W","W","W","W"]],"timingvisible":false,"tabcounter":17,"stave":1,"totalstaves":2,"instrument":"6guitar","selectedtuning":"6_standard","version":"13"}

Member for

5 years 10 months
Submitted by Unterreiner on Wed, 2021-04-14 09:56