Black Sheep

01234567891011121314151617181920212223
E
B
G
D
A
E
B
0 1 2 3 4 5 6 7 8 9 10 11 12 13 14 15 16 17 18 19 20 21 22 23
(/) Slide Up  (\) Slide Down  (h) Hammer On  (p) Pull Off  (b) Bend (r) Release (v) Vibrato

Riff

E|--------------------------------------------
B|--------------------------------------------
G|--------------------------------------------
D|--------------------------------------------
A|-----7--------7--------7-----7-----7-----7--
E|--0-----0--0-----0--0-----------------------

Verse

E|--------------------------------------------------------------------
B|--------------------------------------------------------------------
G|--------------------------------------------------------------------
D|--------------------------------------------------------------------
A|-----------------------------------------------5--5--5--5-----------
E|--0--0--0--0-----0--0--0--0-----0--0--0--0-----3--3--3--3-----------

Last Verse

E|--------------------------------------------------------------
B|--------------------------------------------------------------
G|--------------------------------------------------------------
D|-----------------------------------------------4--4--4--4-----
A|-----------------------------------------------2--2--2--2-----
E|--0--0--0--0-----0--0--0--0-----0--0--0--0-----x--------------

Chorus

E|-----------------------------------------------------------------------------------------------------------------------------------------------------------------------
B|-----------------------------------------------------------------------------------------------------------------------------------------------------------------------
G|-----------------------------------------------------------------------------------------------------------------------------------------------------------------------
D|-----------------4--4--4--4--------------------7--7--7--7--------------------4--4--4--4-----------------7--7--7--7-----------------4--4--4--4--------------4--4--4--4--
A|--5--5--5--5-----2--2--2--2-----2--2--2--2-----5--5--5--5-----5--5--5--5-----2--2--2--2-----2--2--2--2--5--5--5--5-----5--5--5--5--2--2--2--2--2--2--2--2--2--2--2--2--
E|--3--3--3--3--------------------0--0--0--0--------------------3--3--3--3--------------------0--0--0--0-----------------3--3--3--3--------------0--0--0--0--------------

							http://www.guitartabcreator.com
Chords

Instruments
{"strings":[[[".","_","_","_","_","_","_","_","_","_","_","_","_","_"],[".","_","_","_","_","_","_","_","_","_","_","_","_","_"],[".","_","_","_","_","_","_","_","_","_","_","_","_","_"],[".","_","_","_","_","_","_","_","_","_","_","_","_","_"],[".",7,"_","_",7,"_","_",7,"_",7,"_",7,"_",7],[0,"_",0,0,"_",0,0,"_","_","_","_","_","_","_"]],[[".","_","_","_","_","_","_","_","_","_","_","_","_","_","_","_","_","_","_","_","_","_"],[".","_","_","_","_","_","_","_","_","_","_","_","_","_","_","_","_","_","_","_","_","_"],[".","_","_","_","_","_","_","_","_","_","_","_","_","_","_","_","_","_","_","_","_","_"],[".","_","_","_","_","_","_","_","_","_","_","_","_","_","_","_","_","_","_","_","_","_"],[".","_","_","_","_","_","_","_","_","_","_","_","_","_","_",5,5,5,5,"_","_","_"],[0,0,0,0,"_",0,0,0,0,"_",0,0,0,0,"_",3,3,3,3,"_","_","_"]],[[".","_","_","_","_","_","_","_","_","_","_","_","_","_","_","_","_","_","_","_"],[".","_","_","_","_","_","_","_","_","_","_","_","_","_","_","_","_","_","_","_"],[".","_","_","_","_","_","_","_","_","_","_","_","_","_","_","_","_","_","_","_"],[".","_","_","_","_","_","_","_","_","_","_","_","_","_","_",4,4,4,4,"_"],[".","_","_","_","_","_","_","_","_","_","_","_","_","_","_",2,2,2,2,"_"],[0,0,0,0,"_",0,0,0,0,"_",0,0,0,0,"_","x","_","_","_","_"]],[[".","_","_","_","_","_","_","_","_","_","_","_","_","_","_","_","_","_","_","_","_","_","_","_","_","_","_","_","_","_","_","_","_","_","_","_","_","_","_","_","_","_","_","_","_","_","_","_","_","_","_","_","_","_","_"],[".","_","_","_","_","_","_","_","_","_","_","_","_","_","_","_","_","_","_","_","_","_","_","_","_","_","_","_","_","_","_","_","_","_","_","_","_","_","_","_","_","_","_","_","_","_","_","_","_","_","_","_","_","_","_"],[".","_","_","_","_","_","_","_","_","_","_","_","_","_","_","_","_","_","_","_","_","_","_","_","_","_","_","_","_","_","_","_","_","_","_","_","_","_","_","_","_","_","_","_","_","_","_","_","_","_","_","_","_","_","_"],[".","_","_","_","_",4,4,4,4,"_","_","_","_","_","_",7,7,7,7,"_","_","_","_","_","_",4,4,4,4,"_","_","_","_","_",7,7,7,7,"_","_","_","_","_",4,4,4,4,"_","_","_","_",4,4,4,4],[5,5,5,5,"_",2,2,2,2,"_",2,2,2,2,"_",5,5,5,5,"_",5,5,5,5,"_",2,2,2,2,"_",2,2,2,2,5,5,5,5,"_",5,5,5,5,2,2,2,2,2,2,2,2,2,2,2,2],[3,3,3,3,"_","_","_","_","_","_",0,0,0,0,"_","_","_","_","_","_",3,3,3,3,"_","_","_","_","_","_",0,0,0,0,"_","_","_","_","_",3,3,3,3,"_","_","_","_",0,0,0,0,"_","_","_","_"]]],"numberofstrings":6,"notes":["E","B","G","D","A","E","B"],"capo":0,"stringnotes":["E4","B3","G3","D3","A2","E2"],"comments":["Riff","Verse","Last Verse","Chorus"],"timing":[["W","W","W","W","W","W","W","W","W","W","W","W","W","W","W"],["W","W","W","W","W","W","W","W","W","W","W","W","W","W","W","W","W","W","W","W","W","W"],["W","W","W","W","W","W","W","W","W","W","W","W","W","W","W","W","W","W","W","W","W"],["W","W","W","W","W","W","W","W","W","W","W","W","W","W","W","W","W","W","W","W","W","W","W","W","W","W","W","W","W","W","W","W","W","W","W","W","W","W","W","W","W","W","W","W","W","W","W","W","W","W","W","W","W","W","W","W"]],"timingvisible":false,"tabcounter":55,"stave":3,"totalstaves":4,"instrument":"6guitar","selectedtuning":"6_standard","version":"13"}

Member for

5 years 10 months
Submitted by Unterreiner on Thu, 2021-04-29 09:53