Sound will begin in 5 seconds

Biffy Clyro - In The Name Of The Wee Man

Chords
01234567891011121314151617181920212223
E
B
G
D
A
E
B
0 1 2 3 4 5 6 7 8 9 10 11 12 13 14 15 16 17 18 19 20 21 22 23
Song Science #1: How Pros Use 6 Chords to Write Hit Songs
(/) Slide Up  (\) Slide Down  (h) Hammer On  (p) Pull Off  (b) Bend (r) Release (v) Vibrato

Stave 1:

D|-0-----0--0-----0--0--0--0--
A|-13----13-13----13-13-13-13-
F|-10----10-10----10-10-10-10-
C|-0-----0--0-----0--0--0--0--
G|----------------------------
C|----------------------------

Stave 2:

D|---0-----0--0--0--0--0--0--
A|---13----13-13-13-13-13-13-
F|---10----10-10-10-10-10-10-
C|-0-0-----0--0--0--0--0--0--
G|-0-------------------------
C|-0-------------------------

Stave 3:

D|---0----------0--------0--0--0--0--0--0--0--0--0--0--0--0--
A|---13---------13-------13-13-13-13-13-13-13-13-13-13-13-13-
F|---10---------10-------10-10-10-10-10-10-12-12-12-12-12-12-
C|-0-0--------0-0--------12-12-12-12-12-12-10-10-10-10-10-10-
G|-0----------0----------13-13-13-13-13-13-10-10-10-10-10-10-
C|-0----------0----------------------------10-10-10-10-10-10-

Stave 4:

D|---0-----0--0--0--0--0--0----0-----0--0--0--0--0--0--0--0--0--0--0--0--0--0--0--0--0--0--
A|---13----13-13-13-13-13-13---13----13-13-13-13-13-13-13-13-13-13-13-13-13-13-13-13-13-13-
F|---10----10-10-10-10-10-10---10----10-10-10-10-10-10-10-10-10-10-10-10-12-12-12-12-12-12-
C|-0-0-----0--0--0--0--0--0--0-0-----0--0--0--0--0--0--12-12-12-12-12-12-10-10-10-10-10-10-
G|-0-------------------------0-------------------------13-13-13-13-13-13-10-10-10-10-10-10-
C|-0-------------------------0-------------------------------------------10-10-10-10-10-10-

Stave 5:

D|----------------------------------------------------------------------------
A|----------------------------------------------------------------------------
F|-7----7-7-7-7-7-7-7----7-7-7-7-7-7-7----7-7-7-7-7-7-9-----9--9--9--9--9--9--
C|-0----0-0-0-0-0-0-0----0-0-0-0-0-0-0----0-0-0-0-0-0-0-----0--0--0--0--0--0--
G|----------------------------------------------------------------------------
C|-5----5-5-5-5-5-5-7----7-7-7-7-7-7-8----8-8-8-8-8-8-10----10-10-10-10-10-10-

Stave 6:

D|----------------------------------------------------------------
A|-10----10-10-10-10----10-10-10----8-----8--8--8--8-----8--8--8--
F|-7-----7--7--7--7-----7--7--7-----9-----9--9--9--9-----9--9--9--
C|-0-----0--0--0--0-----0--0--0-----10----10-10-10-10----10-10-10-
G|-0-----0--0--0--0-----0--0--0-----10----10-10-10-10----10-10-10-
C|-0-----0--0--0--0-----0--0--0-----10----10-10-10-10----10-10-10-

Stave 7:

D|------------------------------------------------------
A|-3----3-3-3-3----3-3-3----6----6-6-6-6----8--8--8--8--
F|-0----0-0-0-0----0-0-0----7----7-7-7-7----9--9--9--9--
C|-0----0-0-0-0----0-0-0----8----8-8-8-8----10-10-10-10-
G|--------------------------8----8-8-8-8----10-10-10-10-
C|-5----5-5-5-5----5-5-5----8----8-8-8-8----10-10-10-10-

Stave 8:

D|-0-----0--0-----0--0--0--
A|-13----13-13----13-13-13-
F|-10----10-10----10-10-10-
C|-0-----0--0-----0--0--0--
G|-------------------------
C|-------------------------

Stave 9:

D|--------------------------------------------------------
A|-6-------8--------10----------6-------8--------5-6-8-10-
F|-7-------9--------10----------7-------9--------5-7-9-10-
C|-8-------10-------12----------8-------10-------0-0-0-0--
G|--------------------------------------------------------
C|--------------------------------------------------------

Stave 10:

D|---------------------------------------------------
A|-6-------8-----------------------------------------
F|-7-------9-----------------------------------------
C|-8-------10----------------------------------------
G|---------------------------------------------------
C|------------------12-0-12-0-12-0-12-0-12-0-12-0-12-

Stave 11:

D|------------------------------------------------
A|-6-------8--------3-----------------------------
F|-7-------9--------3----------5-------4----------
C|-8-------10-------5----------7-------5-------9--
G|-----------------------------8-------7-------11-
C|------------------------------------------------

Stave 12:

D|-------------------------------------------------------------
A|-------------------------------------------------------------
F|-------------------------------------------------------------
C|-0--0--0--0--0-----0-----0-----0-----0--0--0--0--0--0--0--0--
G|-12-12-12-12-12----12----12----12----12-12-12-12-12-12-12-12-
C|-0--0--0--0--0-----0-----0-----0-----0--0--0--0--0--0--0--0--

Stave 13:

D|-------------------------------------------------------------
A|-------------------------------------------------------------
F|-------------------------------------------------------------
C|-0--0--0--0--0-----0-----0-----0-----0--0--0--0--0--0--0--0--
G|-11-11-11-11-11----11----11----11----11-11-11-11-11-11-11-11-
C|-0--0--0--0--0-----0-----0-----0-----0--0--0--0--0--0--0--0--

Stave 14:

D|----------------------------------
A|----------------------------------
F|----------------------------------
C|-0--0--0--0--0-----0-----0-----0--
G|-11-11-11-11-11----11----11----11-
C|-0--0--0--0--0-----0-----0-----0--

Stave 15:

D|----------------------------------------------------------------------------------------------------
A|-10-10-10-10-10----10----10----10-10-10-10-10-10-8--8--8--8--8-----8-----8-----8--8--8--8--8--8--8--
F|-7--7--7--7--7-----7-----7-----7--7--7--7--7--7--9--9--9--9--9-----9-----9-----9--9--9--9--9--9--9--
C|-0--0--0--0--0-----0-----0-----0--0--0--0--0--0--10-10-10-10-10----10----10----10-10-10-10-10-10-10-
G|-0--0--0--0--0-----0-----0-----0--0--0--0--0--0--10-10-10-10-10----10----10----10-10-10-10-10-10-10-
C|-0--0--0--0--0-----0-----0-----0--0--0--0--0--0--10-10-10-10-10----10----10----10-10-10-10-10-10-10-

Stave 16:

D|---------------------------------------------------------------------------
A|-3-3-3-3-3----3----3----3-3-3-3-3-3-3-6-6-6-6-6----6----6----6-6-6-6-6-6-6-
F|-0-0-0-0-0----0----0----0-0-0-0-0-0-0-7-7-7-7-7----7----7----7-7-7-7-7-7-7-
C|-0-0-0-0-0----0----0----0-0-0-0-0-0-0-8-8-8-8-8----8----8----8-8-8-8-8-8-8-
G|--------------------------------------8-8-8-8-8----8----8----8-8-8-8-8-8-8-
C|-5-5-5-5-5----5----5----5-5-5-5-5-5-5-8-8-8-8-8----8----8----8-8-8-8-8-8-8-

http://www.guitartabcreator.com
Guitar Tab Creator is intended to store guitar tab created through the tool. It currently does not support in-line text editing. Any text you place in here will be lost. If you need to comment on your tab, please use the "Tab Notes" section located below.