Sound will begin in 5 seconds

Biffy Clyro - Mountains

Chords
01234567891011121314151617181920212223
E
B
G
D
A
E
B
0 1 2 3 4 5 6 7 8 9 10 11 12 13 14 15 16 17 18 19 20 21 22 23
Song Science #1: How Pros Use 6 Chords to Write Hit Songs
(/) Slide Up  (\) Slide Down  (h) Hammer On  (p) Pull Off  (b) Bend (r) Release (v) Vibrato

Stave 1:

Eb|-------------------------------------
Bb|-------------------------------------
Gb|-4-4-4-4-4-4-4-4-4-7-7-7-7-7-7-7-7---
Db|-0-0-0-0-0-0-0-0-0-0-0-0-0-0-0-7-7---
Ab|-2-2-2-2-2-2-------------------5-5-0-
Db|-------------2-2-0-5-5-5-5-5-5-------

Stave 2:

Eb|-2-2-----2-2-----2---2-----------2-2---------
Bb|-3---3---3---3---3-3-3-3-3-------3---3-----3-
Gb|-4-----4-4-----4-4-4---4-0-------4-----4---0-
Db|-4-------4-------4-------0-------4-------0-0-
Ab|-2-------2-------2---------------2-----------
Db|-------------------------5-----------------5-

Stave 3:

Eb|-------------------------------------
Bb|-----------------3-3-3-3-3-3-3-------
Gb|-2-2-2-2-2-2-2-2---------------------
Db|-2-2-2-2-2-2-----4-4-4-4-4-4-4-7-7-7-
Ab|-0-0-0-0-0-0-5-5-2-2-2-2-2-2-2/5-5-5-
Db|-------------------------------------

Stave 4:

Eb|-----------------------------
Bb|-----------------3-3-3-3-3-3-
Gb|-2-2-2-2-2-2-2-2-------------
Db|-2-2-2-2-2-2-----4-4-4-4-4-4-
Ab|-0-0-0-0-0-0-5-5-2-2-2-2-2-2-
Db|-----------------------------

Stave 5:

Eb|--------------------------------------------------------------------
Bb|-3-3-3--------------------------------------------------------------
Gb|---------------------------------14-14-14---------------------------
Db|-4-4-4-0---------7-7-7-7-7-7-7-7-11-11-11-0---------7-7-7-7-7-7-7-7-
Ab|-4-4-4-0---------5-5-5-5-5-5-5-5-12-12-12-0---------5-5-5-5-5-5-5-5-
Db|-------0----12\0-0-0-0-0-0-0-0-0-11-11-11-0----12\0-0-0-0-0-0-0-0-0-

Stave 6:

Eb|-------------------------------------------------------------------
Bb|-------------------------------------------------------------------
Gb|-14-14-----------------14-14-14---------------------------14-14-14-
Db|-11-11---9-9-9-9-9-9-9-11-11-11-0---------7-7-7-7-7-7-7-7-11-11-11-
Ab|-12-12-0-9-9-9-9-9-9-9-12-12-12-0---------5-5-5-5-5-5-5-5-12-12-12-
Db|-11-11-0-9-9-9-9-9-9-9-11-11-11-0----12\0-0-0-0-0-0-0-0-0-11-11-11-

Stave 7:

Eb|---------------------------------------------------
Bb|---------------------------------------------------
Gb|---------------------------14-14-------------------
Db|-0---------7-7-7-7-7-7-7-7-11-11---9-9-9-9-9-9-9-9-
Ab|-0---------5-5-5-5-5-5-5-5-12-12-0-9-9-9-9-9-9-9-9-
Db|-0----12\0-0-0-0-0-0-0-0-0-11-11-0-9-9-9-9-9-9-9-9-

Stave 8:

Eb|-------------------------------------------------
Bb|-------------------------------------------------
Gb|-14-14-14-14-14-14-14-14-14-14-14-14-14-14-14-14-
Db|-11-11-11-11-11-11-11-11-12-12-12-12-12-12-12-12-
Ab|-12-12-12-12-12-12-12-12-14-14-14-14-14-14-14-14-
Db|-------------------------------------------------

Stave 9:

Eb|-------------------------------------
Bb|-------------------------------------
Gb|-14-14-14-14-14-14-14-14-14-14-14-14-
Db|-12-12-12-12-12-12-12-12-12-12-12-12-
Ab|-10-10-10-10-10-10-10-10-12-12-12-12-
Db|-------------------------12-12-12-12-

Stave 10:

Eb|-------------------------------------------------
Bb|-------------------------------------------------
Gb|-14-14-14-14-14-14-14-14-14-14-14-14-14-14-14-14-
Db|-12-12-12-12-12-12-12-12-12-12-12-12-0--0--0--0--
Ab|-10-10-10-10-10-10-10-10-12-12-12-12-0--0--0--0--
Db|-------------------------12-12-12-12-0--0--0--0--

Stave 11:

Eb|-------------------------------------------------------------------------
Bb|-------------------------------------------------------------------------
Gb|-4-4-4-4-6-6-6-7-7-7-7-7-7-7-11-11-11-11-9-9-9-9-12-12-12-12-12-12-12-12-
Db|-------------------------------------------------------------------------
Ab|-2-2-2-2-4-4-4-5-5-5-5-5-5-5-9--9--9--9--7-7-7-7-10-10-10-10-10-10-10-10-
Db|-------------------------------------------------------------------------

Stave 12:

Eb|---------------------------------------------------------------------------
Bb|---------------------------------------------------------------------------
Gb|-4-4-4-4-6-6-6-6-9-9-9-9-9-9-7-7-11-11-11-11-11-11-11-11-11-11-11-11-11-11-
Db|---------------------------------------------------------------------------
Ab|-2-2-2-2-4-4-4-4-7-7-7-7-7-7-7-7-9--9--9--9--9--9--9--9--9--9--9--9--9--9--
Db|---------------------------------------------------------------------------

Stave 13:

Eb|----------------------------------------------------------------
Bb|-------------------3----3----3----------------------3----3----3-
Gb|-7-7-7----6-6-6----2----2----2----7-7-7----6-6-6----0----0----0-
Db|-9-9-9----7-7-7----0----0----0----9-9-9----7-7-7----0----0----0-
Ab|-9-9-9----7-7-7----0----0----0----9-9-9----7-7-7----------------
Db|-9-9-9----7-7-7----0----0----0----9-9-9----7-7-7----5----5----5-

Stave 14:

Eb|------------------------------------------------------------------
Bb|-------------------3----3----3--------------------3-3-3-3-3-3-3-3-
Gb|-7-7-7----6-6-6----2----2----2----0-0-0-0-0-0-0-0-0-0-0-0-0-0-0-0-
Db|-9-9-9----7-7-7----0----0----0----2-2-2-2-2-2-2-2-0-0-0-0-0-0-0-0-
Ab|-9-9-9----7-7-7----0----0----0----2-2-2-2-2-2-2-2-----------------
Db|-9-9-9----7-7-7----0----0----0----2-2-2-2-2-2-2-2-5-5-5-5-5-5-5-5-

Stave 15:

Eb|-------------------------------------------------
Bb|-15-14-12----12----12-14-15-14-12----12----12-14-
Gb|----------14----14----------------14----14-------
Db|-------------------------------------------------
Ab|-------------------------------------------------
Db|-------------------------------------------------

Stave 16:

Eb|-----------------------------------------------------------------------------------
Bb|-----------10-10-10-10-10-10-10-10-10-10-10-10-10-10-10-10-10-10-10-10-10-10-10-10-
Gb|-7----6----7--7--7--7--7--7--7--7--7--7--7--7--7--7--7--7--7--7--7--7--7--7--7--7--
Db|-9----7----------------------------9--9--9--9--9--9--9--9--------------------------
Ab|-9----7----9--9--9--9--9--9--9--9--10-10-10-10-10-10-10-10-9--9--9--9--9--9--9--9--
Db|-9----7----0--0--0--0--0--0--0--0--------------------------0--0--0--0--0--0--0--0--

Stave 17:

Eb|---------------------------------------------------------------------------------
Bb|-------------------------------------------------3-3-3-3-3-3-3-3-0-0-0-0-0-0-0-0-
Gb|-14-14-14-14-14-14-14-14-14-14-14-14-14-14-14-14-0-0-0-0-0-0-0-0-0-0-0-0-0-0-0-0-
Db|-11-11-11-11-11-11-11-11-0--0--0--0--0--0--0--0--0-0-0-0-0-0-0-0-2-2-2-2-2-2-2-2-
Ab|-12-12-12-12-12-12-12-12-12-12-12-12-12-12-12-12-----------------2-2-2-2-2-2-2-2-
Db|-11-11-11-11-11-11-11-11-0--0--0--0--0--0--0--0--5-5-5-5-5-5-5-5-2-2-2-2-2-2-2-2-

Stave 18:

Eb|-------------------------------------------------------------------------
Bb|-------------------------------------------------3-3-3-3-3-3-3-3-3-3-3-3-
Gb|-14-14-14-14-14-14-14-14-14-14-14-14-14-14-14-14-0-0-0-0-0-0-0-0-0-0-0-0-
Db|-11-11-11-11-11-11-11-11-0--0--0--0--0--0--0--0--0-0-0-0-0-0-0-0-0-0-0-0-
Ab|-12-12-12-12-12-12-12-12-12-12-12-12-12-12-12-12-------------------------
Db|-11-11-11-11-11-11-11-11-0--0--0--0--0--0--0--0--5-5-5-5-5-5-5-5-5-5-5-5-

Stave 19:

Eb|-----------------------------------------------------------------------
Bb|-----------------------------------------------------------------------
Gb|-14-14-14---------------------------14-14-14---------------------------
Db|-11-11-11-0---------7-7-7-7-7-7-7-7-11-11-11-0---------7-7-7-7-7-7-7-7-
Ab|-12-12-12-0---------5-5-5-5-5-5-5-5-12-12-12-0---------5-5-5-5-5-5-5-5-
Db|-11-11-11-0----12\0-0-0-0-0-0-0-0-0-11-11-11-0----12\0-0-0-0-0-0-0-0-0-

Stave 20:

Eb|-----------------------------------------
Bb|-----------------------------------------
Gb|-14-14-----------------------------------
Db|-11-11---9-9-9-9-9-9-9-9-9-9-9-9-9-9-9-9-
Ab|-12-12-0-9-9-9-9-9-9-9-9-9-9-9-9-9-9-9-9-
Db|-11-11-0-9-9-9-9-9-9-9-9-9-9-9-9-9-9-9-9-

Stave 21:

Eb|----------------------------------------------------------------
Bb|-3-3-3-3-3-3-3-3-3-3-3-3-3-3-3-3-3-3-3-3-3----3-3-3-3-3-3-3-3-3-
Gb|-2-2-2-2-2-2-2-2-2-2-2-2-2-2-2-2-2-2-2-2-2----2-2-2-2-2-2-2-2-2-
Db|-0-0-0-0-0-0-0-0-0-0-0-0-0-0-0-0-0-0-0-0-0----0-0-0-0-0-0-0-0-0-
Ab|-0-0-0-0-0-0-0-0-0-0-0-0-0-0-0-0-0-0-0-0-0----0-0-0-0-0-0-0-0-0-
Db|-0-0-0-0-0-0-0-0-0-0-0-0-0-0-0-0-0-0-0-0-0----0-0-0-0-0-0-0-0-0-

Stave 22:

Eb|-----------------------------
Bb|-3---------------------------
Gb|-4-x-12---------------------
Db|-4-------2-2---5-------7-7---
Ab|-2-------2-2-0-5-------5-5-0-
Db|---------2-2-0-5-------------

Stave 23:

Eb|---------------------------
Bb|-------------3-------------
Gb|-2-------2-2-4-------------
Db|-2-----------4-------7-7-7-
Ab|-0-------5-5-2-------5-5-5-
Db|---------------------------

http://www.guitartabcreator.com
Guitar Tab Creator is intended to store guitar tab created through the tool. It currently does not support in-line text editing. Any text you place in here will be lost. If you need to comment on your tab, please use the "Tab Notes" section located below.