Sound will begin in 5 seconds

Biffy Clyro - Jaggy Snake

Chords
01234567891011121314151617181920212223
E
B
G
D
A
E
B
0 1 2 3 4 5 6 7 8 9 10 11 12 13 14 15 16 17 18 19 20 21 22 23
Song Science #1: How Pros Use 6 Chords to Write Hit Songs
(/) Slide Up  (\) Slide Down  (h) Hammer On  (p) Pull Off  (b) Bend (r) Release (v) Vibrato

Stave 1:

E|-------------------------------------------------------------------
B|-------10-11-10----------------------------------------------------
G|-10-11----------11-10\8\5----5----5----3-5/6/8-6-5\3p0-2----2----2-
D|-------------------------------------------------------0----0----0-
A|-------------------------------------------------------------------
D|-------------------------------------------------------------------

Stave 2:

E|-----------------------------------------
B|-------------------0---------------------
G|-2-2-2-2-2-2-2-3/4-0-2-2-2-2-2-2-2-------
D|-0-0---0---0-------0-0-0---0---0---4-4-4-
A|-0-0-4---3---4-------0-0-4---3---4-4-4-4-
D|-0-0---3---3---------0-0---3---3---4-4-4-

Stave 3:

E|---------------------------------------------
B|-------------------------------------0-0-0-0-
G|-2----2-2-------2-2---2----2-2---------------
D|-0----0-0-------------0----0-0-------2-3-4-4-
A|-0----0-0-------4p3p0----------------2-3-4-4-
D|-0----0-0-------------3----3-3-------2-3-4-4-

Stave 4:

E|-------------------------------------
B|-------------------------------------
G|-0----0-0----0-0-0----0-0-0----0-0-0-
D|-------------------------------------
A|-3----3-3----3-3-3----4-4-4----4-4-4-
D|-------------------------------------

Stave 5:

E|-------------------------------------
B|-------------------------------------
G|-0----0-0----0-0-0----0-0-0----0-0-0-
D|-------------------------------------
A|-3----3-3----3-3-3----3-3-3----3-3-3-
D|-------------------------------------

Stave 6:

E|-------------------------------------
B|-------------------------------------
G|-0----0-0----0-0-0----0-0-0----0-0-0-
D|-0----0-0----0-0-0----0-0-0----0-0-0-
A|-------------------------------------
D|-5----5-5----5-5-5----5-5-5----5-5-5-

Stave 7:

E|-------------------
B|-------------------
G|-5-5-5-------7-7-7-
D|-5-5-5-------7-7-7-
A|-3-3-3-------5-5-5-
D|-------------------

Stave 8:

E|-----------------
B|-----------------
G|-2-2-2-2-2-2-2-2-
D|-0-0-0-0-0-0-0-0-
A|-----------------
D|-----------------

Stave 9:

E|---------------------------------
B|---------------------------------
G|-2-2-2-2-2-2-2-2-2-2-2-2-2-2-2-2-
D|-0-0-0-0-0-0-0-0-0-0-0-0-0-0-0-0-
A|---------------------------------
D|-5-5-5-5-5-5-5-5-5-5-5-5-5-5-5-5-

Stave 10:

E|---------------------------------
B|---------------------------------
G|-2-2-2-2-2-2-2-2-2-2-2-2-2-2-2-2-
D|-0-0-0-0-0-0-0-0-0-0-4-0-4-0-4-0-
A|-5-5-5-5-5-5-5-5-5-5-5-5-5-5-5-5-
D|---------------------------------

Stave 11:

E|----------------------------
B|----------------------------
G|-15-14----12----15-14----12-
D|----------------------------
A|----------------------------
D|----------------------------

Stave 12:

E|--------------------------
B|--------------------------
G|--------------------------
D|--------------------------
A|--------------------------
D|-20-19----0----20-19----0-

Stave 13:

E|----------------------------------------------------------------------------------------------------
B|----------------------------------------------------------------------------------------------------
G|-7-7-7-7----7-7-7-7----6-6-6-7-------------10-10-10-10----10-10-10-10----10-10-10-10----10-10-10-10-
D|-0-0-0-0----0-0-0-0----------0-------------10-10-10-10----10-10-10-10----10-10-10-10----10-10-10-10-
A|-----------------------4-4-4------8-8-8----8--8--8--8-----8--8--8--8-----8--8--8--8-----8--8--8--8--
D|-5-5-5-5----5-5-5-5----5-5-5-5----5-5-5----------------------------------8--8--8--8-----8--8--8--8--

Stave 14:

E|----------------------------
B|----------------------------
G|-19-17----15----19-17----15-
D|----------------------------
A|----------------------------
D|----------------------------

Stave 15:

E|------------------
B|------------------
G|-----9-9-----9-10-
D|-0-0-----0-0------
A|-0-0-7-7-0-0-7-8--
D|-0-0-----0-0------

Stave 16:

E|---------------------
B|---------------------
G|-----12-12-----12-14-
D|-0-0-------0-0-------
A|-0-0-10-10-0-0-10-12-
D|-0-0-------0-0-------

Stave 17:

E|---------------------
B|-------5---------5/6-
G|-------5---------5-5-
D|---------------------
A|-------5---------5-5-
D|-0-0-0---0-0-0-0-----

Stave 18:

E|-------0--------------0-------0-0-0-------------0-
B|-------3--------------3-------3-3-3-------------3-
G|-------5--------------5-------5-5-5-------------5-
D|-------5--------------5-------5-5-5-------------5-
A|-0-0-0---------0----0---------------------0-0-0---
D|--------------------------------------------------

Stave 19:

E|---------------------------------------0-0-0-0----0-0-0-0-----------------------
B|-5-------5-------5-5-5-5----5-5-5-5----3-3-3-3----3-3-3-3----3-3-3-3----3-3-3-3-
G|-5-------5-------5-5-5-5----5-5-5-5----5-5-5-5----5-5-5-5----5-5-5-5----5-5-5-5-
D|-0-------0-------3-3-3-3----3-3-3-3----5-5-5-5----5-5-5-5----5-5-5-5----5-5-5-5-
A|-0-------0-------3-3-3-3----3-3-3-3----0-0-0-0----0-0-0-0-----------------------
D|-0-------0-------3-3-3-3----3-3-3-3--------------------------5-5-5-5----5-5-5-5-

Stave 20:

E|-------------------------------------------------------------------------------------------------
B|-------------------------------------------------------------------------------------------------
G|-----------------------9--------9-9--------9-9----------9-9----------9-9-----9--------9-9-----10-
D|-0-------0-0-------0-0------0-0--------0-0-----0----0-0-----0----0-0-----0-0------0-0-----0-0----
A|-0-------0-0-------0-0-7----0-0-7-7----0-0-7-7-0----0-0-7-7-0----0-0-7-7-0-0-7----0-0-7-7-0-0-8--
D|-0-------0-0-------0-0------0-0--------0-0-----0----0-0-----0----0-0-----0-0------0-0-----0-0----

http://www.guitartabcreator.com
Guitar Tab Creator is intended to store guitar tab created through the tool. It currently does not support in-line text editing. Any text you place in here will be lost. If you need to comment on your tab, please use the "Tab Notes" section located below.