Sound will begin in 5 seconds

Biffy Clyro - Herex

Chords
01234567891011121314151617181920212223
E
B
G
D
A
E
B
0 1 2 3 4 5 6 7 8 9 10 11 12 13 14 15 16 17 18 19 20 21 22 23
Song Science #1: How Pros Use 6 Chords to Write Hit Songs
(/) Slide Up  (\) Slide Down  (h) Hammer On  (p) Pull Off  (b) Bend (r) Release (v) Vibrato

Stave 1:

Eb|---------------------------
Bb|---------------------------
Gb|---------------------------
Db|-------------------5-5-5-5-
Ab|-------------8----\3-3-3-3-
Db|-3----\10-10---------------

Stave 2:

Eb|-----------------------------
Bb|-----------------------------
Gb|-----------------------------
Db|---------------10----5-5-5-5-
Ab|-3----10-10----8-----3-3-3-3-
Db|-3----10-10------------------

Stave 3:

Eb|-------------------------------------------------------------------------------------------
Bb|-------------------------------------------------------------------------------------------
Gb|-------------------------------------------------------------------------------------------
Db|-------------------------------------------------------------------------------------------
Ab|-------------------------------------------------------------------------------------------
Db|-10-10----10-10-10-10-------10-10----10-10-10-10-------7-7----7-7-7-7-------6-6----6-6-6-6-

Stave 4:

Eb|-----------------
Bb|-----------------
Gb|-7-------5-------
Db|-5-------3-------
Ab|-5-------3-------
Db|-5-------3-------

Stave 5:

Eb|-0----0----0--------------------------------------------0----0----0-0----0-
Bb|----------------1----1-1----1-1----1-1----1-1----3-3----1----1----1-1----1-
Gb|-5----5----5----2----2-2----2-2----2-2----2-2----0-0----2----2----2-2----2-
Db|-5--------------3----3-3----3-3----3-3----3-3----0-0----2----2----2-2----2-
Ab|-3----5----7----3----3-3----3-3----3-3----3-3-----------0----0----0-0----0-
Db|----------------3----3-3----3-3----3-3----3-3----5-5-----------------------

Stave 6:

Eb|---------------------------------------------------------------------------------------------------
Bb|---------------------------------------------------------------------------------------------------
Gb|---------------------------------------------------------------------------------------------------
Db|---------------------------------------------------------------------------------------------------
Ab|---------------------------------------------------------------------------------------------------
Db|-9b10----10-10----10-10-10-10-------10-10----10-10-10-10-------7-7----7-7-7-7-------6-6----6-6-6-6-

Stave 7:

Eb|-------------------------------------------------
Bb|-------------------------------------------------
Gb|-------------------------------------------------
Db|-------------------------------------------------
Ab|-0-0-0-0-0-0-0-0-0-0-0-0-0-0-0-0-0-0-0-0-0-0-0-0-
Db|-------------------------------------------------

Stave 8:

Eb|-----------------------------------------
Bb|-----------------------------------------
Gb|-----------------------------------------
Db|-----------------------------------------
Ab|-----------0-0----0-0-0-0-0-0-0-0----0-0-
Db|-12-------\0-0----0-0-0-0-0-0-0-0----0-0-

Stave 9:

Eb|----------------------------------------
Bb|----------------------------------------
Gb|----------------------------------------
Db|----------------------------------------
Ab|----------0-0----0-0-0-0-0-0-0-0----0-0-
Db|----------0-0----0-0-0-0-0-0-0-0----0-0-

Stave 10:

Eb|-0----0----0----0-
Bb|-1----5----6----5-
Gb|-2----5----7----5-
Db|-x--------------3-
Ab|-0----3----5----3-
Db|----------------3-

http://www.guitartabcreator.com
Guitar Tab Creator is intended to store guitar tab created through the tool. It currently does not support in-line text editing. Any text you place in here will be lost. If you need to comment on your tab, please use the "Tab Notes" section located below.