Sound will begin in 5 seconds

Biffy Clyro - Friends And Enemies

Chords
01234567891011121314151617181920212223
E
B
G
D
A
E
B
0 1 2 3 4 5 6 7 8 9 10 11 12 13 14 15 16 17 18 19 20 21 22 23
Song Science #1: How Pros Use 6 Chords to Write Hit Songs
(/) Slide Up  (\) Slide Down  (h) Hammer On  (p) Pull Off  (b) Bend (r) Release (v) Vibrato

Stave 1:

C|---------------------------------
G|---------------------------------
F|-7-7-7-7-7-7-7-7-7-7-7-7-7-7-7-7-
C|---------------------------------
G|---------------------------------
C|---------------------------------

Stave 2:

C|---------------------------------
G|---------------------------------
F|-6-6-6-6-6-6-6-6-6-6-6-6-6-6-6-6-
C|---------------------------------
G|---------------------------------
C|---------------------------------

Stave 3:

C|-0-------0-------0----------
G|-9-------9-------0-------12-
F|-0-------7-------0-------12-
C|-9-------0-------0-------12-
G|-7--------------------------
C|---------9-------5----------

Stave 4:

C|---------------------------------------------------------------------
G|---------------------------------------------------------------------
F|-----7-----9-----7-----9-----7v--------0-----0-----0-----0-----0v----
C|-7h9---7h9---7h9---7h9---7h9-------7h9---7h9---7h9---7h9---7h9-------
G|---------------------------------------------------------------------
C|---------------------------------------------------------------------

Stave 5:

C|-----------------------------------------------------------
G|-------------7h9---7h9---7h9-------9h10---9h10---10/12v----
F|-7h9---7h9-------------------------------------------------
C|-----7-----7-----7-----7-----7v---------7------7-----------
G|-----------------------------------------------------------
C|-----------------------------------------------------------

Stave 6:

C|-0----0----0-------0----0----0-0-------0----0----0-------0----0----0-0----
G|-0----0----0-------0----0----0-0-------0----0----0-------0----0----0-0----
F|-2----2----2-------2----2----2-2-------0----0----0-------0----0----0-0----
C|-0----0----0-------0----0----0-0-------0----0----0-------0----0----0-0----
G|-0----0----0-------0----0----0-0------------------------------------------
C|-0----0----0-------0----0----0-0-------5----5----5-------5----5----5-5----

Stave 7:

C|-------------------------------------------0-----0-----0--------0--
G|-10----10----10-------10----10----10-10----10----10----10-------10-
F|-9-----9-----9--------9-----9-----9--9-----11----11----11-------11-
C|-11----11----11-------11----11----11-11----9-----9-----9--------9--
G|-0-----0-----0--------0-----0-----0--0-----9-----9-----9--------9--
C|-------------------------------------------9-----9-----9--------9--

Stave 8:

C|------------------
G|------------------
F|-7----6----2----4-
C|-0----0----0----0-
G|------------------
C|-9----7----4----5-

Stave 9:

C|-------------------------------------------0-----0-----0--------0-----0-----
G|-10----10----10-------10----10----10-10----10----10----10-------10----10----
F|-9-----9-----9--------9-----9-----9--9-----11----11----11-------11b12-11b12-
C|-11----11----11-------11----11----11-11----9-----9-----9--------9-----9-----
G|-0-----0-----0--------0-----0-----0--0-----9-----9-----9--------9-----9-----
C|-------------------------------------------9-----9-----9--------9-----9-----

Stave 10:

C|-0-------0-0-0-0-------0-0-0-0-0-------0-0-0-0-------0-0-0-0---
G|-0-------0-0-0-0-------0-0-0-0-0-------0-0-0-0-------0-0-0-0---
F|-0-------0-0-0-2-------2-2-2-2-2-------2-2-2-0-------0-0-0-0---
C|-2-------2-2-2-2-------2-2-2-2-0-------0-0-0-0-------0-0-0-0---
G|-2-------2-2-2-0-------0-0-0-0-0-------0-0-0-------------------
C|-2-------2-2-2-----------------0-------0-0-0-5-------5-5-4-4-0-

http://www.guitartabcreator.com
Guitar Tab Creator is intended to store guitar tab created through the tool. It currently does not support in-line text editing. Any text you place in here will be lost. If you need to comment on your tab, please use the "Tab Notes" section located below.