Sound will begin in 5 seconds

Biffy Clyro - Don't, Won't, Can't

Chords
01234567891011121314151617181920212223
E
B
G
D
A
E
B
0 1 2 3 4 5 6 7 8 9 10 11 12 13 14 15 16 17 18 19 20 21 22 23
Song Science #1: How Pros Use 6 Chords to Write Hit Songs
(/) Slide Up  (\) Slide Down  (h) Hammer On  (p) Pull Off  (b) Bend (r) Release (v) Vibrato

Stave 1:

E|----------------------
B|-15-15-15----11-11-13-
G|-15-15-15----10-10-12-
D|-17-17-17----12-12-14-
A|----------------------
E|----------------------

Stave 2:

E|------------------------------------------------------
B|-10-10-8--10-10-10-8--10-11-11-13-10------10-10-8--10-
G|-10-10-9--10-10-10-9--10-10-10-12-10------10-10-9--10-
D|-12-12-10-12-12-12-10-12-12-12-14-12------12-12-10-12-
A|------------------------------------------------------
E|-------------------------------------12\0-------------

Stave 3:

E|-------------------------
B|-15-15-15-15-11-11-13-13-
G|-15-15-15-15-10-10-12-12-
D|-17-17-17-17-12-12-14-14-
A|-------------------------
E|-------------------------

Stave 4:

E|-------------
B|-15/18-17-15-
G|-------------
D|-------------
A|-------------
E|-------------

Stave 5:

E|-------------------------------------------------
B|-10-10-10-10-13-13-13-13-11-11-11-11-11-11-8--8--
G|-10-10-10-10-14-14-12-12-10-10-10-10-12-12-9--9--
D|-12-12-12-12-15-15-14-14-12-12-12-12-12-12-10-10-
A|-------------------------------------------------
E|-------------------------------------------------

Stave 6:

E|--------------------------------------------------------------
B|--------------------------------------------------------------
G|--------------------------------------------------------------
D|-----5-7-5-----------5-7-5-----------5-7-5-----------5-7-8-7v-
A|-5-8-------8-7-5-7-8-------8-7-5-7-8-------8-7-5-7-8----------
E|--------------------------------------------------------------

Stave 7:

E|-----------------------------------------------
B|-----------------------------------------------
G|-----------------------------------------------
D|-----------------------------------------------
A|-12-0----12----0-0-12----0-0----15-15-15-15-15-
E|-12-0----12----0-0-12----0-0----15-15-15-15-15-

Stave 8:

E|-------------------------------------------------
B|-10-10-10-10-13-13-13-13-11-11-11-11-11-11-13-13-
G|-10-10-10-10-14-14-12-12-10-10-10-10-10-10-12-12-
D|-12-12-12-12-15-15-14-14-12-12-12-12-12-12-14-14-
A|-------------------------------------------------
E|-------------------------------------------------

Stave 9:

E|---------------------------------------------------
B|---------------------------------------------------
G|---10---9/12-------9-12-7------10---9\7----5-7/9-7-
D|-7----8---------10-----------7----8----------------
A|---------------------------------------------------
E|---------------------------------------------------

Stave 10:

E|----------------------------------------------------------
B|----------------------------------------------------------
G|---10---9/12-------9-12-7----14v------10---9\7----5-7/9-7\
D|-7----8---------10------------------7----8----------------
A|----------------------------------------------------------
E|----------------------------------------------------------

Stave 11:

E|----------------------------------------------------------------------------------------------
B|------11-11-11-11-11-11-11-11-11-11-11-11-11-11-11-11-6-6-6-6-6-6-6-6-8--8--8--8--8--8--8--8--
G|------------------------------------------------------7-7-7-7-7-7-7-7-9--9--9--9--10-9--9--9--
D|-0----12-12-12-12-12-12-12-12-12-12-12-12-12-12-12-12-8-8-8-8-8-8-8-8-10-10-10-10-10-10-10-10-
A|-0----10-10-10-10-10-10-10-10-10-10-10-10-10-10-10-10-8-8-8-8-8-8-8-8-10-10-10-10-10-10-10-10-
E|-0----------------------------------------------------8-8-8-8-8-8-8-8-10-10-10-10-10-10-10-10-

Stave 12:

E|----------------------------------------------------------------
B|-10-10----10----10-10----10-10-1-1----1----8--8-----8-----8--8--
G|-10-10----10----10-10----10-10-2-2----2----9--9-----9-----9--9--
D|-0--0-----0-----0--0-----0--0--3-3----3----10-10----10----10-10-
A|-0--0-----0-----0--0-----0--0--3-3----3----10-10----10----10-10-
E|-0--0-----0-----0--0-----0--0--3-3----3----10-10----10----10-10-

Stave 13:

E|---------------------------------------------------------
B|-6-6----6----6-6----6-6-6-6----6----8--8-----8-----8--8--
G|-7-7----7----7-7----7-7-7-7----7----9--9-----9-----9--9--
D|-8-8----8----8-8----8-8-8-8----8----10-10----10----10-10-
A|-8-8----8----8-8----8-8-8-8----8----10-10----10----10-10-
E|-8-8----8----8-8----8-8-8-8----8----10-10----10----10-10-

Stave 14:

E|------------------------------------------------------------
B|-6-6----6----6-6----6-6-11-11----11----8--8-----8-----8--8--
G|-7-7----7----7-7----7-7----------------9--9-----9-----9--9--
D|-8-8----8----8-8----8-8-12-12----12----10-10----10----10-10-
A|-8-8----8----8-8----8-8-10-10----10----10-10----10----10-10-
E|-8-8----8----8-8----8-8----------------10-10----10----10-10-

Stave 15:

E|-----------------------------------------------------------------------
B|-----------------------------------------------------------------------
G|-----------------------------------------------------------------------
D|-----------------------------------------------------------------------
A|---8---7/10----------------------8---7\5----------------------8---7/10-
E|-7---8---------0-0-0-0-0-0-0-0-7---8--------0-0-0-0-0-0-0-0-7---8------

Stave 16:

E|----------------------------------------------------
B|----------------------------------------------------
G|---14---15---17---19----------------7---7---7---7---
D|----------------------------------------------------
A|---12---13---15---17---8---7\5------5---5---5---5---
E|-0-0--0-0--0-0--0-0--7---8--------0-0-0-0-0-0-0-0-0-

http://www.guitartabcreator.com
Guitar Tab Creator is intended to store guitar tab created through the tool. It currently does not support in-line text editing. Any text you place in here will be lost. If you need to comment on your tab, please use the "Tab Notes" section located below.