Sound will begin in 5 seconds

Animal Style - Biffy Clyro

Chords
01234567891011121314151617181920212223
E
B
G
D
A
E
B
0 1 2 3 4 5 6 7 8 9 10 11 12 13 14 15 16 17 18 19 20 21 22 23
Song Science #1: How Pros Use 6 Chords to Write Hit Songs
(/) Slide Up  (\) Slide Down  (h) Hammer On  (p) Pull Off  (b) Bend (r) Release (v) Vibrato

Stave 1:

D|-----------------
A|-----------------
F|-----7-----7---7-
C|-----7-----7---7-
G|-9-9---9-9---9---
C|-9-9---9-9---9---

Stave 2:

D|---------------------------------
A|---------------------------------
F|-----7-----7---------------------
C|-----7-----7---------------------
G|-9-9---9-9---9-----5-------7-----
C|-9-9---9-9---9-4-5---5-6-7---7-8-

Stave 3:

D|----------------------------------
A|-12-x-x-12-x-x-12-12-12-12-12-x-x-
F|----------------------------------
C|-9--x-x-9--x-x-9--9--9--9--9--x-x-
G|----------------------------------
C|----------------------------------

Stave 4:

D|-----------------------------------------------------------------
A|-----------------------------------------------------------------
F|-----------------------------------------------------------------
C|-----------------------------------------------------------------
G|-----------------------------------------------------------------
C|-2-2-2-2-2-2-2-2-4-4-4-4-4-4-4-4-0-0-0-0-0-0-0-0-2-2-2-2-2-2-2-2-

Stave 5:

D|-------------------------------------------------------------------------
A|-------------------------------------------------------------------------
F|-------------------------------------------------------------------------
C|-------------------------------------------------------------------------
G|-------------------------------------------------------------------------
C|-9-9-9-9-9-9-9-9-14-14-14-14-14-14-14-14-5-5-5-5-5-5-5-5-7-7-7-7-7-7-7-7-

Stave 6:

D|-----------------0-0-0-0-0-0-0-0-----------------0-0-0-0-0-0-0-0-
A|-0-0-0-0-0-0-0-0-8-8-8-8-8-8-8-8-3-3-3-3-3-3-3-3-x-x-x-x-x-x-x-x-
F|-7-7-7-7-7-7-7-7-9-9-9-9-9-9-9-9-0-0-0-0-0-0-0-0-2-2-2-2-2-2-2-2-
C|-9-9-9-9-9-9-9-9-9-9-9-9-9-9-9-9-0-0-0-0-0-0-0-0-2-2-2-2-2-2-2-2-
G|-9-9-9-9-9-9-9-9-7-7-7-7-7-7-7-7-x-x-x-x-x-x-x-x-0-0-0-0-0-0-0-0-
C|---------------------------------5-5-5-5-5-5-5-5-----------------

Stave 7:

D|---------------------------------------------------
A|-3-3-3-3-3-3-3-3-3-3-3-3-3-3-3-3-3-3-3-3-3-3-3-3-0-
F|-4-4-4-4-4-4-4-4-2-2-2-2-2-2-2-2-0-0-0-0-0-0-0-0-0-
C|-4-4-4-4-4-4-4-4-0-0-0-0-0-0-0-0-0-0-0-0-0-0-0-0-2-
G|-2-2-2-2-2-2-2-2-0-0-0-0-0-0-0-0-x-x-x-x-x-x-x-x-2-
C|-----------------0-0-0-0-0-0-0-0-5-5-5-5-5-5-5-5-2-

Stave 8:

D|------------------------------------------------------------------------------------------
A|------12------12------12------12------12------12------12------12------12------12------12v-
F|-9h11----9h11----9h11----9h11----9h11----9h11----9h11----9h11----9h11----9h11----9h11-----
C|------------------------------------------------------------------------------------------
G|------------------------------------------------------------------------------------------
C|------------------------------------------------------------------------------------------

Stave 9:

D|---------------------------------
A|---------------------------------
F|-3-3-3-4-4-4-4-4-7-7-7-9-9-9-9-9-
C|---------------------------------
G|---------------------------------
C|---------------------------------

Stave 10:

D|------------------------------------------------------------------------
A|-------------------------------------------------------------------9----
F|--------------------------------------------7-10-7------------7-10---10-
C|-3-3-3-4-4-4-4-4-7-7-7-9-9-9-7h9b7b0------9--------9--------9-----------
G|----------------------------------------8------------8----8-------------
C|------------------------------------------------------------------------

Stave 11:

D|-------------------------------------------------------------
A|-------------7h10b7b0-7---7-6-------------7h10b7b0-7---7-6---
F|------------------------7----------------------------7-----7-
C|-------------------------------------------------------------
G|-------------------------------------------------------------
C|-------------------------------------------------------------

Stave 12:

D|-----------------------------------------------------------------------16----
A|-------------7h10b7b0-7---7-6-9----------15-18-15----------------15-18----18-
F|------------------------7-------------16----------16----------16-------------
C|-----------------------------------15----------------15----15----------------
G|-----------------------------------------------------------------------------
C|-----------------------------------------------------------------------------

Stave 13:

D|---------------------------
A|---------------------------
F|-----7-----7---------------
C|-----7-----7---------------
G|-9-9---9-9---9-----5-------
C|-9-9---9-9---9-4-5---5-6-7-

http://www.guitartabcreator.com
Guitar Tab Creator is intended to store guitar tab created through the tool. It currently does not support in-line text editing. Any text you place in here will be lost. If you need to comment on your tab, please use the "Tab Notes" section located below.