Sound will begin in 5 seconds

Brick By Brick by Caiaphas Forgiven

Chords
01234567891011121314151617181920212223
E
B
G
D
A
E
B
0 1 2 3 4 5 6 7 8 9 10 11 12 13 14 15 16 17 18 19 20 21 22 23
Song Science #1: How Pros Use 6 Chords to Write Hit Songs
(/) Slide Up  (\) Slide Down  (h) Hammer On  (p) Pull Off  (b) Bend (r) Release (v) Vibrato

Stave 1:

E|-----------------
B|-----------------
G|-----------------
D|--2--2--2--2--4--
A|--2--2--2--2--4--
E|--0--0--0--0--2--

Stave 2:

E|-----------------
B|-----------------
G|-----------------
D|--4--4--4--4--4--
A|--4--4--4--4--4--
E|--2--2--2--2--2--

Stave 3:

E|-----------------
B|-----------------
G|-----------------
D|--2--2--2--2--4--
A|--2--2--2--2--4--
E|--0--0--0--0--2--

Stave 4:

E|--------------------------------------------------------------
B|--------------------------------------------------------------
G|--------------------------------------------------------------
D|--4--4--4--4--4-----------4-----------4-----------4-----------
A|--4--4--4--4--4-----------4-----------4-----------4-----------
E|--2--2--2--2--2-----------2-----------2-----------2-----------

Stave 5:

E|-----------------------------------------------------------------------------------
B|-----------------------------------------------------------------------------------
G|-----------------------------------------------------------------------------------
D|--2--4-----4--4--4--4--5--4-----4--4--4--4--4--5-----------2-----------5-----------
A|--2--4-----4--4--4--4--5--4-----4--4--4--4--4--5-----------2-----------5-----------
E|--0--2-----2--2--2--2--3--2-----2--2--2--2--2--3-----0--0--0-----0--0--3-----0--0--

Stave 6:

E|--------------------------------------------------------------------------------
B|--------------------------------------------------------------------------------
G|--------------------------------------------------------------------------------
D|--2--4-----4--4--4--4--5--4-----4--4--4--4--4--4--4--4--4--4--4--4--4--4--4--4--
A|--2--4-----4--4--4--4--5--4-----4--4--4--4--4--4--4--4--4--4--4--4--4--4--4--4--
E|--0--2-----2--2--2--2--3--2-----2--2--2--2--2--2--2--2--2--2--2--2--2--2--2--2--

Stave 7:

E|--------------------------------------------------------------------------------------------
B|--------------------------------------------------------------------------------------------
G|--------------------------------------------------------------------------------------------
D|--5-----------2-----------5-----------6-----------5-----------------------------------------
A|--5-----------2-----------5-----------4-----------3--------------------4--------3--------1--
E|--3-----0--0--0-----0--0--3-----0--0--4-----0--0--3--------------2--2-----2--2-----2--2-----

Stave 8:

E|--------------------------------------------------------------------------------------------------
B|--------------------------------------------------------------------------------------------------
G|--------------------------------------------------------------------------------------------------
D|--------------------------------------------------------------------------------------------------
A|--8--7--5--7--------------------------------------8--7--5--7--------------------------------------
E|--------------0--0--0--0--0--0--0--0--0--0--0--0--------------0--0--0--0--0--0--0--0--0--0--0--0--

Stave 9:

E|-------------------------------------------------------------------------------------------------
B|-------------------------------------------------------------------------------------------------
G|-------------------------------------------------------------------------------------------------
D|-------------------------------------------------------------------------------------------------
A|--8--7--5--7--------------------------------------8--7-------------------------------------------
E|--------------0--0--0--0--0--0--0--0--0--0--0--0--------10--8--7--10--8--7--5--8--7--5--4--------

Stave 10:

E|-----------------------------------------------
B|-----------------------------------------------
G|-----------------------------------------------
D|--2--------2--2--------2--2-----------2-----2--
A|--2--------2--2--------2--2-----------2-----2--
E|--0--------0--0--------0--0-----------0-----0--

Stave 11:

E|-----------------------------------------------
B|-----------------------------------------------
G|-----------------------------------------------
D|--2--------2--------2--------2-----2--2--2--2--
A|--2--------2--------2--------2-----2--2--2--2--
E|--0-----0--------0--------0--------0--0--0--0--

Stave 12:

E|--------------------------------------------------------------------------------------------------
B|--------------------------------------------------------------------------------------------------
G|--------------------------------------------------------------------------------------------------
D|--7-----7-----7--7--7--7--6-----6-----6--6--6--6--3-----3-----3--3--3--3--2-----2--2--3--2--2--2--
A|--7-----7-----7--7--7--7--6-----6-----6--6--6--6--3-----3-----3--3--3--3--2-----2--2--3--2--2--2--
E|--5-----5-----5--5--5--5--4-----4-----4--4--4--4--1-----1-----1--1--1--1--0-----0--0--1--0--0--0--

Stave 13:

E|-----------------------------------------------------------
B|-----------------------------------------------------------
G|-----------------------------------------------------------
D|--5-----------------5--2--------------5--------------5--2--
A|--3-----------------3--2--------------3--------------3--2--
E|--3-----------------3--0--------------3--------------3--0--

Stave 14:

E|-----------------------------------------
B|-----------------------------------------
G|--------------------------------------5--
D|--6-----------5-----------3-----------3--
A|--4-----------3-----------1-----------1--
E|--4-----------3-----------1-----------1--

Stave 15:

E|-----------------------------------------------------
B|-----------------------------------------------------
G|-----------------------------------------------------
D|--6-----------5-----------3-----------2-----2-----2--
A|--4-----------3-----------1-----------2-----2-----2--
E|--4-----------3-----------1-----------0-----0-----0--

http://www.guitartabcreator.com
Guitar Tab Creator is intended to store guitar tab created through the tool. It currently does not support in-line text editing. Any text you place in here will be lost. If you need to comment on your tab, please use the "Tab Notes" section located below.