Sound will begin in 5 seconds

Stay With Me

Chords
01234567891011121314151617181920212223
E
B
G
D
A
E
B
0 1 2 3 4 5 6 7 8 9 10 11 12 13 14 15 16 17 18 19 20 21 22 23
Song Science #1: How Pros Use 6 Chords to Write Hit Songs
(/) Slide Up  (\) Slide Down  (h) Hammer On  (p) Pull Off  (b) Bend (r) Release (v) Vibrato

Stave 1:

E|----------------------------------------------------------13--x--13--x--15--17--x--17--
B|----------------------------------------------------13----13--x--13--x--15--17--x--17--
G|----14--12\10--9--10--------------14--12\10--9--10-------------------------------------
D|----------------------12--12-----------------------------------------------------------
A|---------------------------------------------------------------------------------------
E|---------------------------------------------------------------------------------------

Stave 2:

E|--20--17--20--17--------------17--17--
B|------------------20--18--20----------
G|--------------------------------------
D|--------------------------------------
A|--------------------------------------
E|--------------------------------------

Stave 3:

E|------10--13p12p10--13p12p10-----------------------------------------------------------
B|--13--------------------------------13p11p10--13p11p10---------------------------------
G|--------------------------------------------------------12--10--12--12/14--12----------
D|-------------------------------------------------------------------------------15--15--
A|---------------------------------------------------------------------------------------
E|---------------------------------------------------------------------------------------

Stave 4:

E|--
B|--
G|--
D|--
A|--
E|--

http://www.guitartabcreator.com
Guitar Tab Creator is intended to store guitar tab created through the tool. It currently does not support in-line text editing. Any text you place in here will be lost. If you need to comment on your tab, please use the "Tab Notes" section located below.