Sound will begin in 5 seconds

scar tissue slane

Chords
01234567891011121314151617181920212223
E
B
G
D
A
E
B
0 1 2 3 4 5 6 7 8 9 10 11 12 13 14 15 16 17 18 19 20 21 22 23
Song Science #1: How Pros Use 6 Chords to Write Hit Songs
(/) Slide Up  (\) Slide Down  (h) Hammer On  (p) Pull Off  (b) Bend (r) Release (v) Vibrato

Stave 1:

E|---------------------------------------------------------------------------------------
B|--13h15--15--15--15b17--13---------15p13------13--13--13b15-----------------12b13------
G|----------------------------12h14---------14-----------------14--14--12h14---------14--
D|---------------------------------------------------------------------------------------
A|---------------------------------------------------------------------------------------
E|---------------------------------------------------------------------------------------

Stave 2:

E|-------------------------------------------------13\12-----------------------------13\12------
B|--20b22--20p18--20--18p17--18--17p15--17--15p13---------15--15--15--15--15--15p13---------15--
G|----------------------------------------------------------------------------------------------
D|----------------------------------------------------------------------------------------------
A|----------------------------------------------------------------------------------------------
E|----------------------------------------------------------------------------------------------

Stave 3:

E|-------------20---------------------------20---------------------------------------------------------------
B|--15--15--20b22--20p18--20p18----------20b22--20p18--20p18----------20b22b20--17--17--18--20p18p17--20b18--
G|-------------------------------19--19-----------------------19--19-----------------------------------------
D|-----------------------------------------------------------------------------------------------------------
A|-----------------------------------------------------------------------------------------------------------
E|-----------------------------------------------------------------------------------------------------------

Stave 4:

E|--
B|--
G|--
D|--
A|--
E|--

http://www.guitartabcreator.com
Guitar Tab Creator is intended to store guitar tab created through the tool. It currently does not support in-line text editing. Any text you place in here will be lost. If you need to comment on your tab, please use the "Tab Notes" section located below.