Sound will begin in 5 seconds

high hopes acoustic

01234567891011121314151617181920212223
E
B
G
D
A
E
B
0 1 2 3 4 5 6 7 8 9 10 11 12 13 14 15 16 17 18 19 20 21 22 23
(/) Slide Up  (\) Slide Down  (h) Hammer On  (p) Pull Off  (b) Bend (r) Release (v) Vibrato

Stave 1:

E|--11--10--8----------------------------11--10--8---------------------
B|-------------8v-----------------------------------11--8--------------
G|-----------------10--8--10/12--10--12--------------------10--8--10v--
D|---------------------------------------------------------------------
A|---------------------------------------------------------------------
E|---------------------------------------------------------------------

Stave 2:

E|--11--10--8-----------------------------------------------------------------------------------------------
B|-------------11--8--8--8h9h8------------------------------------------------------------------------------
G|------------------------------10--8--7h8h7-------------7--8--7--------------------------------------------
D|--------------------------------------------8--10--10-----------10--8----------------------------8--8/10--
A|-----------------------------------------------------------------------10--8--10--8--6--8--8/10-----------
E|----------------------------------------------------------------------------------------------------------

Stave 3:

E|--11--8--11--11/13--8----------8--11--8--11--8--
B|-----------------------11--11-------------------
G|------------------------------------------------
D|------------------------------------------------
A|------------------------------------------------
E|------------------------------------------------

Stave 4:

E|--
B|--
G|--
D|--
A|--
E|--

http://www.guitartabcreator.com
Guitar Tab Creator is intended to store guitar tab created through the tool. It currently does not support in-line text editing. Any text you place in here will be lost. If you need to comment on your tab, please use the "Tab Notes" section located below.