Sound will begin in 5 seconds

Jazzer

Chords
01234567891011121314151617181920212223
E
B
G
D
A
E
B
0 1 2 3 4 5 6 7 8 9 10 11 12 13 14 15 16 17 18 19 20 21 22 23
Song Science #1: How Pros Use 6 Chords to Write Hit Songs
(/) Slide Up  (\) Slide Down  (h) Hammer On  (p) Pull Off  (b) Bend (r) Release (v) Vibrato

Stave 1:

E|--------------------------------------------------------------------------------------------------
B|--------------------------------------------------------------------------------------------------
G|--------------------------------------------------------------------------------------------------
D|--------4-----------------------7-----------------------4-----------------------7-----------------
A|--2--2-----2--------5-----5--5-----5--------7-----2--2-----2--------5-----5--5-----5--------7-----
E|--------------3--3-----3--------------5--5-----5--------------3--3-----3--------------5--5-----5--

Stave 2:

E|--------------------------------------------------------------------------------------------------
B|--------------------------------------------------------------------------------------------------
G|--------------------------------------------------------------------------------------------------
D|--------4-----------------------7-----------------------4-----------------------7-----------------
A|--2--2-----2--------5-----5--5-----5--------7-----2--2-----2--------5-----5--5-----5--------7-----
E|--------------3--3-----3--------------5--5-----5--------------3--3-----3--------------5--5-----5--

Stave 3:

E|--------------------------------------------------------------------------------------------
B|--------------------------------------------------------------------------------------------
G|--5--5--5--5--5--5--5--5--5--5--5--5--5--5--5--7--7--7--7--7--7--7--7--7--7--7--7--7--7--7--
D|--5--5--5--5--5--5--5--5--5--5--5--5--5--5--5--7--7--7--7--7--7--7--7--7--7--7--7--7--7--7--
A|--3--3--3--3--3--3--3--3--3--3--3--3--3--3--3--5--5--5--5--5--5--5--5--5--5--5--5--5--5--5--
E|--------------------------------------------------------------------------------------------

Stave 4:

E|--------------------------------------------------------------------------------------------------
B|--------------------------------------------------------------------------------------------------
G|--------4--4--5--5--7--7--------4--4--5--5--------------4--4--5--5--7--7--5--5--5--5--7--7--7--7--
D|--5--5--4--4--5--5--7--7--5--5--4--4--5--5--5--5--5--5--4--4--5--5--7--7--5--5--5--5--7--7--7--7--
A|--5--5--2--2--3--3--5--5--5--5--2--2--3--3--5--5--5--5--2--2--3--3--5--5--3--3--3--3--5--5--5--5--
E|--3--3--------------------3--3--------------3--3--3--3--------------------------------------------

Stave 5:

E|--------------------------------------------------------------------------------
B|-----------------------------------------------------------10--12--10--8--7-----
G|--7-----7--9--11-----7-----7--11--9-----7-----7--9--11-----------------------9--
D|--------------------------------------------------------------------------------
A|--------------------------------------------------------------------------------
E|--------------------------------------------------------------------------------

http://www.guitartabcreator.com
Guitar Tab Creator is intended to store guitar tab created through the tool. It currently does not support in-line text editing. Any text you place in here will be lost. If you need to comment on your tab, please use the "Tab Notes" section located below.