Sound will begin in 5 seconds

Devine Hate

01234567891011121314151617181920212223
E
B
G
D
A
E
B
0 1 2 3 4 5 6 7 8 9 10 11 12 13 14 15 16 17 18 19 20 21 22 23
Song Science #1: How Pros Use 6 Chords to Write Hit Songs
(/) Slide Up  (\) Slide Down  (h) Hammer On  (p) Pull Off  (b) Bend (r) Release (v) Vibrato

Stave 1:

E|-------------------------------------------------------------
B|-------------------------------------------------------------
G|-------------------------------------------------------------
D|--2--------------------------2--2--------------------------2--
A|--2-----------3--7-----------2--2-----------3--7-----------2--
E|--0--0--0--0--------0--0--0-----0--0--0--0--------1--3--5-----

Stave 2:

E|----------------------------------------------------------
B|----------------------------------------------------------
G|----------------------------------------------------------
D|----5--5--5--5--5--5--5--5--5-----------------------------
A|----3--3--3--3--3--3--3--3--3--7--7--7--7--7--7--7--7--7--
E|-------------------------------5--5--5--5--5--5--5--5--5--

Stave 3:

E|-------------------------------------------------|----------------------------------------------
B|-------------------------------------------------|----------------------------------------------
G|-------------------------------------------------|----------------------------------------------
D|-------------------------------------------------|----------------------------------------------
A|----3\4-----3\4-----3\4-----3\4-----3\4--3\4--3--|--3\4-----3\4-----3\4-----3\4-----7--7--7--7--
E|----1-2--0--1-2--0--1-2--0--1-2--0--1-2--1-2--1--|--1-2--0--1-2--0--1-2--0--1-2--0--5--5--5--5--

Stave 4:

E|--------------------------------------------
B|--------------------------------------------
G|--------------------------------------------
D|--------------------------------------------
A|----11--------12p11------11--11--12p11--14--
E|----0---0--0---------12---------------------

Stave 5:

E|-------
B|----8--
G|-------
D|----9--
A|----7--
E|-------

Stave 6:

E|----------------------------------------------------------------------------------------
B|----------------------------------------------------------------------------------------
G|----------------------------------------------------------------------------------------
D|----7-----------------------------------------------------------------------------------
A|----------------------7--8-----------------7--8-----------------7--8--------------------
E|-------8--5--8--4--7--------8--5--8--4--7--------8--5--8--4--7--------8--5--8--4--7--7--

Stave 7:

E|-------------------------------------------------------------------------------------
B|-------------------------------------------------------------------------------------
G|-------------------------------------------------------------------------------------
D|-------------------------5-----------------------------------------3--3--3--3--3--3--
A|----7--------------------3--3--3--3--3--3--3--3--------------------1--1--1--1--1--1--
E|----5--5--5--5--5--5--5-----------------------1--1--1--1--1--1--1--------------------

http://www.guitartabcreator.com
Guitar Tab Creator is intended to store guitar tab created through the tool. It currently does not support in-line text editing. Any text you place in here will be lost. If you need to comment on your tab, please use the "Tab Notes" section located below.