Sound will begin in 5 seconds

Demonizer

Chords
01234567891011121314151617181920212223
E
B
G
D
A
E
B
0 1 2 3 4 5 6 7 8 9 10 11 12 13 14 15 16 17 18 19 20 21 22 23
Song Science #1: How Pros Use 6 Chords to Write Hit Songs
(/) Slide Up  (\) Slide Down  (h) Hammer On  (p) Pull Off  (b) Bend (r) Release (v) Vibrato

Stave 1:

E|--------------------------------------------------------------
B|--------------------------------------------------------------
G|--------------------------------------------------------------
D|--------------------------------------------------------------
A|--------------------------------------------------------------
E|--1--0--1--0--1--0--1--5--5--5--1--0--1--0--1--0--1--5--5--5--

Stave 2:

E|--------------------------------------------------------------------------------------------
B|--------------------------------------------------------------4--------------4--5--4--5--4--
G|--------------------------------------------5-----------5--5--5--------------5--6--5--6--5--
D|--7-----------7-8--7\8--7--------------7--8--7-----------7--7--------------------------------
A|--5-----------5-6--5-6--5--------------5--6--8-----------8--8--------------------------------
E|--0--0--0--0---\0----------0--0--0--0-----------0--0--0-----------0--0--0--0-----------------

Stave 3:

E|--------------------------------------------------------------------------------------------
B|--------------------------------------------------------------------------------------------
G|--------------------------------------------------------------------------------------------
D|--------------------------------------------------------------------------------------------
A|--------------------------------------------------------------------------------------------
E|--1--1--1--0--1--1--0--1--1--0--5--5--5--0--5--5--0--5--5--0--3--3--3--0--1--1--0--1--1--0--

Stave 4:

E|--------------------------------------------------------------
B|--------------------------------------------------------------
G|--------------------------------------------------------------
D|--------------------------------------------------------------
A|--------------------------------------------------------------
E|--1--0--1--0--1--0--1--5--5--5--1--0--1--0--1--0--1--5--5--5--

Stave 5:

E|--------------------------------------------------
B|--------------------------------------------------
G|--------------------------------------------------
D|--------------------------------------------------
A|--------------------------------------------------
E|--0--0--0--0--0--0--0--0--0--0--2--1--6--5--3--0--

Stave 6:

E|----------------------
B|----------------------
G|----5-----5--5--4-----
D|--7--7--7-----7--5--7--
A|--8-----------------5--
E|----------------------

Stave 7:

E|-----------------------------------------
B|-----------------------------------------
G|-----------------------------------------
D|-----------------------------------------
A|-----5--------4--------------2-----------
E|--0-----6--5-----5--4--0--1-----3--1--0--

Stave 8:

E|-----------------------------------------------------------------------------------------------------------------------------------------------------------
B|-----------------------------------------------------------------------------------------------------------------------------------------------------------
G|-----------------------------------------------------------------------------------------------------------------------------------------------------------
D|-----------------------------------------------------------------------------------------------------------------------------------------------------------
A|-----------------------------------------------------------------------------------------------------------------------------------------------------------
E|--0--2--3--0--0--3--2--0--2--3--0--0--3--2--0--2--3--0--0--3--2--0--2--3--0--0--3--2--0--6--5--0--6--5--0--6--5--0--6--5--0--6--5--0--6--5--0--6--5--0--5--

Stave 9:

E|-----------------------------------------
B|-----------------------------------------
G|-----------------------------------------
D|-----------------------------------------
A|--------2--1--------5--------2--1--------
E|--0--2--------0--2-----0--2--------0--2--

Stave 10:

E|--------------------
B|--------------------
G|--------------------
D|--------------------
A|--------------------
E|--7--8--1--7--8--1--

http://www.guitartabcreator.com
Guitar Tab Creator is intended to store guitar tab created through the tool. It currently does not support in-line text editing. Any text you place in here will be lost. If you need to comment on your tab, please use the "Tab Notes" section located below.